Search tabs and chords

Search for song, artist or band

Log in

One click and you are in

Login with Facebook Login with Google

Why sign up and log in

Guitar Tabs Explorer
Rammstein guitar tabs for Rein raus

Guitar tabs

Rammstein
                     09 - rein raus
                     Tabbed by Blinders
                     HE! It's all my work! Don't touch
                     Want more? http:/perso.club-internet.fr/blinders

DROP D chord diagramDD

INTRO
|-6-6-6-6-|
|-6-6-6-6-|
|-6-6-6-6-|

RIFF1
|-3-----2-----3-5-3-----2------3-5-3-----2-----3-5-3-----2---6-6-6-|
|-3-----2-----3-5-3-----2------3-5-3-----2-----3-5-3-----2---6-6-6-| 2x
|-3-2-2-2-2-2-3-5-3-2-2-2-2222-3-5-3-2-2-2-2-2-3-5-3-2-2-2---6-6-6-|
    pm-|  pm-|      pm-|  pm--|      pm-|  pm-|      pm-|     =20

RIFF2A
|-1-----0---1-----0---1-----0-----1-3-1-----0---
|-1-----0---1-----0---1-----0-----1-3-1-----0---
|-1-0-0-0---1-0-0-0---1-0-0-0-0-0-1-3-1-0-0-0---
    pm-|      pm-|      pm-|  pm-|      pm-|=20

|-1-----0---1-----0---1-----0-----1-3-1-----0-----|
|-1-----0---1-----0---1-----0-----1-3-1-----0-----|
|-1-0-0-0---1-0-0-0---1-0-0-0-0-0-1-3-1-0-0-0-016-|
    pm-|      pm-|      pm-|  pm-|      pm-|  pm-|

RIFF2B
|-1-----0---1-----0---1-----0-----1-3-1-----0---
|-1-----0---1-----0---1-----0-----1-3-1-----0---
|-1-0-0-0---1-0-0-0---1-0-0-0-0-0-1-3-1-0-0-0---
    pm-|      pm-|      pm-|  pm-|      pm-|

|-1-----0-----1-3-1-----0-----1-3-1-----0-----1-3-1-----0-----1-3-|
|-1-----0-----1-3-1-----0-----1-3-1-----0-----1-3-1-----0-----1-3-|
|-1-0-0-0-0-0-1-3-1-0-0-0-0-0-1-3-1-0-0-0-0-0-1-3-1-0-0-0-0-0-1-3-|
    pm-|  pm-|      pm-|  pm-|      pm-|  pm-|      pm-|  pm-|

RIFF3
|7---5---10-----9-----10-12-10-----9-----10-12-7---5---10-----9-----10-12= -
|7---5---10-----9-----10-12-10-----9-----10-12-7---5---10-----9-----10-12= -
|7---5---10-9-9-9-9-9-10-12-10-9-9-9-9-9-10-12-7---5---10-9-9-9-9-9-10-12= -
            pm-|  pm-|         pm-|  pm-|

|10-----9-----10-12-10-----9-----10-12-10-----9-10-10-12-|
|10-----9-----10-12-10-----9-----10-12-10-----9-10-10-12-|
|10-9-9-9-9-9-10-12-10-9-9-9-9-9-10-12-10-9-9-9-10-10-12-|
    pm-|  pm-|         pm-|  pm-|         pm-|

BREACK

Guit1
|------------------------------------|
|------------------------------------|
|66666666-66666666-66666666-66666666-|
h.s.--------------------------------|

Guit2
|22-22-22-22-|
|22-22-22-22-|
|22-22-22-22-|

solo 2x (w/riff1)
|------------------------------------------------------------------------= |
|10-9-9-10-9-9-10-9-10-9-9-----------10-9-9-10-9-9-10-9-10-9-9-13-131313-= |
|--------------------------10-101010-------------------------------------= |
|------------------------------------------------------------------------= |
|------------------------------------------------------------------------= |
|------------------------------------------------------------------------= |
w/wha-------------------------------------------------------------------|=

RIFF4
|6-5-5-5-5-5-6-8-|
|6-5-5-5-5-5-6-8-| 8x
|6-5-5-5-5-5-6-8-|
     pm  pm-|


INTRO
RIFF1
RIFF2A
RIFF1
RIFF2B
RIFF1
INTRO
RIFF3
BREACK
SOLO
RIFF4
RIFF1

Almost there ...

Sign in to get your own page with links to favourite songs and more. You are just one click away...

Login with Facebook Login with Google