Search tabs and chords

Search for song, artist or band

Log in

One click and you are in

Login with Facebook Login with Google

Why sign up and log in

Guitar Tabs Explorer
Rammstein guitar tabs for Rammlied

Guitar tabs

----------------------------------------------------------------------------
			     Rammlied - Rammstein
----------------------------------------------------------------------------
Tabbed by: Bee-Ay
Tuning: D chord diagramDD

Wer wartet mit Besonnenheit
Der wird belohnt zur rechten zeit
Nun das Warten hat ein ende
Leiht euer ohr einer legende...

Chorus:


  RAMM!!!            STEIN!!!
D|----------------------------------------|
A|----------------------------------------|
F| chord diagramF|F|----------------------------------------|
C| chord diagramC|C|-2----7----5----3-----2----7----9--5--7-|
G|-2----7----5----3-----2----7----9--5--7-|
C| chord diagramC|C|-2----7----5----3-----2----7----9--5--7-|


   RAMM!!!            STEIN!!!
D|----------------------------------------------------|
A|----------------------------------------------------|
F| chord diagramF|F|----------------------------------------------------|
C| chord diagramC|C|-2----7----5----3-----2----7----9--5--7-------------|
G|-2----7----5----3-----2----7----9--5--7--//11b12~~~-|
C| chord diagramC|C|-2----7----5----3-----2----7----9--5--7-------------|


Also a Chorus part:
D|------------------------------------------------------------|
A|------------------------------------------------------------|
F| chord diagramF|F|*-----------------------------------------------------------|
C| chord diagramC|C|*-9-----------9-----------9-10-9-----------9-----------12/8-|
G|--7--7-7-7-7--7--7-7-7-7--7/8/-7--7-7-7-7--7--7-7-7-7--10/6-|
C| chord diagramC|C|------------------------------------------------------------|
pm:    . . . .     . . . .          . . . .     . . . .

D|-----------------------------------------------------------|
A|-----------------------------------------------------------|
F| chord diagramF|F|----------------------------------------------------------*|
C| chord diagramC|C|-9-----------9-----------7-10-9-----------9-----9---------*|
G|-7--7-7-7-7--7--7-7-7-7--5/8/-7--7-7-7-7--7-7-7-7-7-7-7-7--|
C| chord diagramC|C|-----------------------------------------------------------|
pm:   . . . .     . . . .          . . . .    . .   . . . .


Bridge:
D|-------------------------------------------------------------------------|
A|-------------------------------------------------------------------------|
F| chord diagramF|F|-------------------------------------------------------------------------|
C| chord diagramC|C|-0-0-0-0--0-0-0-0---0-0-0-0--0-0-0-0--2-2-2-2--2-2-2-2--2-2-2-2--2-2-2-2-|
G|-0-0-0-0--0-0-0-0---0-0-0-0--0-0-0-0--2-2-2-2--2-2-2-2--2-2-2-2--2-2-2-2-|
C| chord diagramC|C|-0-0-0-0--0-0-0-0---0-0-0-0--0-0-0-0--2-2-2-2--2-2-2-2--2-2-2-2--2-2-2-2-|
Pm:. . . .  . . . .   . . . .  . . . .  . . . .  . . . .  . . . .  . . . .


D|------------------------------------------------------------------------------------|
A|------------------------------------------------------------------------------------|
F| chord diagramF|F|------------------------------------------------------------------------------------|
C| chord diagramC|C|-0-0-0-0--0-0-0-0---0-0-0-0--0-0-0-0--2-2-2-2--2-2-2-2--2-2-2-2---2-2-2-2-2-3-1-1-0-|
G|-0-0-0-0--0-0-0-0---0-0-0-0--0-0-0-0--2-2-2-2--2-2-2-2--2-2-2-2---2-2-2-2-2-3-1-1-0-|
C| chord diagramC|C|-0-0-0-0--0-0-0-0---0-0-0-0--0-0-0-0--2-2-2-2--2-2-2-2--2-2-2-2---2-2-2-2-2-3-1-1-0-|
Pm:. . . .  . . . .   . . . .  . . . .  . . . .  . . . .  . . . .   . . . . . . . . .

Interlude:
Guitar 1:
D|-----------|-----------|-----------|-----------|
A|-----------|-----------|-----------|-----------|
F| chord diagramF|F|-7--7--7-7-|-7--7--7-7-|-7--7--7-7-|-7--7--7-7-|
C| chord diagramC|C|-x--x--x-x-|-x--x--x-x-|-x--x--x-x-|-x--x--x-x-|
G|-5--5--5-5-|-5--5--5-5-|-5--5--5-5-|-5--5--5-5-|
C| chord diagramC|C|-----------|-----------|-----------|-----------|


Guitar 2:
D|-----------|-----------|-----------|-----------|
A|-----------|-----------|-----------|-----------|
F| chord diagramF|F|-----------|-----------|-----------|-----------|
C| chord diagramC|C|-----------|-----------|-----------|-----------|
G|-----------|-----------|-----------|-----------|
C| chord diagramC|C|-0--0--0-0-|-5--5--5-5-|-3--3--3-3-|-1--1--1-1-|


Outro:
D|-----------------------------------------------------------|
A|-----------------------------------------------------------|
F| chord diagramF|F|-----------------------------------------------------------|
C| chord diagramC|C|-9---------------9---------------9-------9------9-7-5/10-9-|
G|-7--7-7-7-7-7-7--7--7-7-7-7-7-7--7--7-7--7--7-7-7-5-3/8--7-|
C| chord diagramC|C|-----------------------------------------------------------|
pm:   . . . . . .     . . . . . .     . .     . .

Almost there ...

Sign in to get your own page with links to favourite songs and more. You are just one click away...

Login with Facebook Login with Google