Search tabs and chords

Search for song, artist or band

Log in

One click and you are in

Login with Facebook Login with Google

Why sign up and log in

Guitar Tabs Explorer
Rammstein guitar tabs for Pussy (Ver. 2)

Guitar tabs

Intro:
D|----------------------|--------------------|--------------------|------------------------------|
A|----------------------|--------------------|--------------------|------------------------------|
F| chord diagramF|F|----------------------|--------------------|--4-4-4-4--4-4-4-4--|------------------------------|
C| chord diagramC|C|----2-2-2-2--2-2-2-2--|--0-0-0-0--0-0-0-0--|--4-4-4-4--4-4-4-4--|--5-5-5-5--5/7-7-7------------|
G|----2-2-2-2--2-2-2-2--|--0-0-0-0--0-0-0-0--|--2-2-2-2--2-2-2-2--|--5-5-5-5--5/7-7-7------------|
C| chord diagramC|C|----2-2-2-2--2-2-2-2--|--0-0-0-0--0-0-0-0--|--------------------|--5-5-5-5--5/7-7-7------------|

D|----------------------|--------------------|---------------------|-----------------------------|
A|----------------------|--------------------|---------------------|-----------------------------|
F| chord diagramF|F|----------------------|--------------------|--4-4-4-4--4-4-4-4---|-----------------------------|
C| chord diagramC|C|----2-2-2-2--2-2-2-2--|--0-0-0-0--0-0-0-0--|--4-4-4-4--4-4-4-4---|--5-5-5-5--4-4-4-4-----------|
G|----2-2-2-2--2-2-2-2--|--0-0-0-0--0-0-0-0--|--2-2-2-2--2-2-2-2---|--5-5-5-5--4-4-4-4-----------|
C| chord diagramC|C|----2-2-2-2--2-2-2-2--|--0-0-0-0--0-0-0-0--|---------------------|--5-5-5-5--4-4-4-4-----------|

D|----------------------|--------------------|--------------------|------------------------------|
A|----------------------|--------------------|--------------------|------------------------------|
F| chord diagramF|F|----------------------|--------------------|--4-4-4-4--4-4-4-4--|------------------------------|
C| chord diagramC|C|----2-2-2-2--2-2-2-2--|--0-0-0-0--0-0-0-0--|--4-4-4-4--4-4-4-4--|--5-5-5-5--5/7-7-7------------|
G|----2-2-2-2--2-2-2-2--|--0-0-0-0--0-0-0-0--|--2-2-2-2--2-2-2-2--|--5-5-5-5--5/7-7-7------------|
C| chord diagramC|C|----2-2-2-2--2-2-2-2--|--0-0-0-0--0-0-0-0--|--------------------|--5-5-5-5--5/7-7-7------------|

D|----------------------|--------------------|---------------------|-----------------------------|
A|----------------------|--------------------|---------------------|-----------------------------|
F| chord diagramF|F|----------------------|--------------------|--4-4-4-4--4-4-4-4---|-----------------------------|
C| chord diagramC|C|----2-2-2-2--2-2-2-2--|--0-0-0-0--0-0-0-0--|--4-4-4-4--4-4-4-4---|--5-5-5-5--4-4-4-4-----------|
G|----2-2-2-2--2-2-2-2--|--0-0-0-0--0-0-0-0--|--2-2-2-2--2-2-2-2---|--5-5-5-5--4-4-4-4-----------|
C| chord diagramC|C|----2-2-2-2--2-2-2-2--|--0-0-0-0--0-0-0-0--|---------------------|--5-5-5-5--4-4-4-4-----------|

Verse:
  PM
D|-----------------------|--------------------|----------------------|---------------------------|
A|-----------------------|--------------------|----------------------|---------------------------|
F| chord diagramF|F|-----------------------|--------------------|----------------------|---------------------------|
C| chord diagramC|C|-----------------------|--------------------|----------------------|---------------------------|
G|-----------------------|--------------------|---2-2-2-2--2-2-2-2---|---------------------------|
C| chord diagramC|C|----2-2-2-2--2-2-2-2---|--0-0-0-0--0-0-0-0--|----------------------|---5-5-5-5--7-7-7-7--------|

  PM
D|-----------------------|--------------------|----------------------------------------------------|
A|-----------------------|--------------------|----------------------------------------------------|
F| chord diagramF|F|-----------------------|--------------------|----------------------------------------------------|
C| chord diagramC|C|-----------------------|--------------------|----------------------------------------------------|
G|-----------------------|--------------------|---2-2-2-2--2-2-2-2--2-2-2-2--2-2-2-2---------------|
C| chord diagramC|C|----2-2-2-2--2-2-2-2---|--0-0-0-0--0-0-0-0--|----------------------------------------------------|

D|-----------------------|--------------------|----------------------|---------------------------|
A|-----------------------|--------------------|----------------------|---------------------------|
F| chord diagramF|F|-----------------------|--------------------|----------------------|---------------------------|
C| chord diagramC|C|-----------------------|--------------------|----------------------|---------------------------|
G|-----------------------|--------------------|---2-2-2-2--2-2-2-2---|---------------------------|
C| chord diagramC|C|----2-2-2-2--2-2-2-2---|--0-0-0-0--0-0-0-0--|----------------------|---5-5-5-5--7-7-7-7--------|
  PM
D|-----------------------|--------------------|----------------------------------------------------|
A|-----------------------|--------------------|----------------------------------------------------|
F| chord diagramF|F|-----------------------|--------------------|----------------------------------------------------|
C| chord diagramC|C|-----------------------|--------------------|----------------------------------------------------|
G|-----------------------|--------------------|---2-2-2-2--2-2-2-2--2-2-2-2--2-2-2-2---------------|
C| chord diagramC|C|----2-2-2-2--2-2-2-2---|--0-0-0-0--0-0-0-0--|----------------------------------------------------|

Pre-Chorus:
D|-----------------------------------------|--------------------|----------------------------------|
A|-----------------------------------------|--------------------|----------------------------------|
F| chord diagramF|F|-----------------------------------------|--------------------|----------------------------------|
C| chord diagramC|C|-----------------------------------------|--------------------|----------------------------------|
G|----3-3-3-3--3-3-3-3--3-3-3-3--3-3-3-3---|--0-0-0-0--0-0-0-0--|---9-9-9-9--9-9-9-9---------------|
C| chord diagramC|C|-----------------------------------------|--------------------|---9-9-9-9--9-9-9-9---------------|
        Just a little bit................. Just a little bitch.............

Chorus:
D|----------------------|--------------------|--------------------|------------------------------|
A|----------------------|--------------------|--------------------|------------------------------|
F| chord diagramF|F|----------------------|--------------------|--4-4-4-4--4-4-4-4--|------------------------------|
C| chord diagramC|C|----2-2-2-2--2-2-2-2--|--0-0-0-0--0-0-0-0--|--4-4-4-4--4-4-4-4--|--5-5-5-5--5/7-7-7------------|
G|----2-2-2-2--2-2-2-2--|--0-0-0-0--0-0-0-0--|--2-2-2-2--2-2-2-2--|--5-5-5-5--5/7-7-7------------|
C| chord diagramC|C|----2-2-2-2--2-2-2-2--|--0-0-0-0--0-0-0-0--|--------------------|--5-5-5-5--5/7-7-7------------|

D|----------------------|--------------------|---------------------|-----------------------------|
A|----------------------|--------------------|---------------------|-----------------------------|
F| chord diagramF|F|----------------------|--------------------|--4-4-4-4--4-4-4-4---|-----------------------------|
C| chord diagramC|C|----2-2-2-2--2-2-2-2--|--0-0-0-0--0-0-0-0--|--4-4-4-4--4-4-4-4---|--5-5-5-5--4-4-4-4-----------|
G|----2-2-2-2--2-2-2-2--|--0-0-0-0--0-0-0-0--|--2-2-2-2--2-2-2-2---|--5-5-5-5--4-4-4-4-----------|
C| chord diagramC|C|----2-2-2-2--2-2-2-2--|--0-0-0-0--0-0-0-0--|---------------------|--5-5-5-5--4-4-4-4-----------|

D|----------------------|--------------------|--------------------|------------------------------|
A|----------------------|--------------------|--------------------|------------------------------|
F| chord diagramF|F|----------------------|--------------------|--4-4-4-4--4-4-4-4--|------------------------------|
C| chord diagramC|C|----2-2-2-2--2-2-2-2--|--0-0-0-0--0-0-0-0--|--4-4-4-4--4-4-4-4--|--5-5-5-5--5/7-7-7------------|
G|----2-2-2-2--2-2-2-2--|--0-0-0-0--0-0-0-0--|--2-2-2-2--2-2-2-2--|--5-5-5-5--5/7-7-7------------|
C| chord diagramC|C|----2-2-2-2--2-2-2-2--|--0-0-0-0--0-0-0-0--|--------------------|--5-5-5-5--5/7-7-7------------|

D|----------------------|--------------------|---------------------|-----------------------------|
A|----------------------|--------------------|---------------------|-----------------------------|
F| chord diagramF|F|----------------------|--------------------|--4-4-4-4--4-4-4-4---|-----------------------------|
C| chord diagramC|C|----2-2-2-2--2-2-2-2--|--0-0-0-0--0-0-0-0--|--4-4-4-4--4-4-4-4---|--5-5-5-5--4-4-4-4-----------|
G|----2-2-2-2--2-2-2-2--|--0-0-0-0--0-0-0-0--|--2-2-2-2--2-2-2-2---|--5-5-5-5--4-4-4-4-----------|
C| chord diagramC|C|----2-2-2-2--2-2-2-2--|--0-0-0-0--0-0-0-0--|---------------------|--5-5-5-5--4-4-4-4-----------|

Bridge:
D|-------------------------------------|
A|-------------------------------------|
F| chord diagramF|F|-------------------------------------|
C| chord diagramC|C|----------5--------------------7-5-4-|  x4
G|----2-5-2-3---------2-5-2------5-3-2-|
C| chord diagramC|C|----2-5-2-----------2-5-2------------|

D|-----------------------------------------------------------------------------------------------|
A|-----------------------------------------------------------------------------------------------|
F| chord diagramF|F|------------------------4------------------------------------------------------------4---------|
C| chord diagramC|C|----2---------0---------4---------3/5------------------7---------2---------0---------4---------|
G|----2---------0---------2---------3/5------------------7---------2---------0---------2---------|
C| chord diagramC|C|----2---------0-------------------3/5------------------7---------2---------0-------------------|
                                    (Let ring............)                            (Let ring......)

D|-----------------------------------------------------------------------------------------------|
A|-----------------------------------------------------------------------------------------------|
F| chord diagramF|F|------------------------4------------------------------------------------------------4---------|
C| chord diagramC|C|----2---------0---------4---------3/5------------------7---------2---------0---------4---------|
G|----2---------0---------2---------3/5------------------7---------2---------0---------2---------|
C| chord diagramC|C|----2---------0-------------------3/5------------------7---------2---------0-------------------|
                                    (Let ring............)

Chorus:
D|----------------------|--------------------|--------------------|------------------------------|
A|----------------------|--------------------|--------------------|------------------------------|
F| chord diagramF|F|----------------------|--------------------|--4-4-4-4--4-4-4-4--|------------------------------|
C| chord diagramC|C|----2-2-2-2--2-2-2-2--|--0-0-0-0--0-0-0-0--|--4-4-4-4--4-4-4-4--|--5-5-5-5--5/7-7-7------------|
G|----2-2-2-2--2-2-2-2--|--0-0-0-0--0-0-0-0--|--2-2-2-2--2-2-2-2--|--5-5-5-5--5/7-7-7------------|
C| chord diagramC|C|----2-2-2-2--2-2-2-2--|--0-0-0-0--0-0-0-0--|--------------------|--5-5-5-5--5/7-7-7------------|

D|----------------------|--------------------|---------------------|-----------------------------|
A|----------------------|--------------------|---------------------|-----------------------------|
F| chord diagramF|F|----------------------|--------------------|--4-4-4-4--4-4-4-4---|-----------------------------|
C| chord diagramC|C|----2-2-2-2--2-2-2-2--|--0-0-0-0--0-0-0-0--|--4-4-4-4--4-4-4-4---|--5-5-5-5--4-4-4-4-----------|
G|----2-2-2-2--2-2-2-2--|--0-0-0-0--0-0-0-0--|--2-2-2-2--2-2-2-2---|--5-5-5-5--4-4-4-4-----------|
C| chord diagramC|C|----2-2-2-2--2-2-2-2--|--0-0-0-0--0-0-0-0--|---------------------|--5-5-5-5--4-4-4-4-----------|

D|----------------------|--------------------|--------------------|------------------------------|
A|----------------------|--------------------|--------------------|------------------------------|
F| chord diagramF|F|----------------------|--------------------|--4-4-4-4--4-4-4-4--|------------------------------|
C| chord diagramC|C|----2-2-2-2--2-2-2-2--|--0-0-0-0--0-0-0-0--|--4-4-4-4--4-4-4-4--|--5-5-5-5--5/7-7-7------------|
G|----2-2-2-2--2-2-2-2--|--0-0-0-0--0-0-0-0--|--2-2-2-2--2-2-2-2--|--5-5-5-5--5/7-7-7------------|
C| chord diagramC|C|----2-2-2-2--2-2-2-2--|--0-0-0-0--0-0-0-0--|--------------------|--5-5-5-5--5/7-7-7------------|

D|----------------------|--------------------|---------------------|-----------------------------|
A|----------------------|--------------------|---------------------|-----------------------------|
F| chord diagramF|F|----------------------|--------------------|--4-4-4-4--4-4-4-4---|-----------------------------|
C| chord diagramC|C|----2-2-2-2--2-2-2-2--|--0-0-0-0--0-0-0-0--|--4-4-4-4--4-4-4-4---|--5-5-5-5--4-4-4-4-----------|
G|----2-2-2-2--2-2-2-2--|--0-0-0-0--0-0-0-0--|--2-2-2-2--2-2-2-2---|--5-5-5-5--4-4-4-4-----------|
C| chord diagramC|C|----2-2-2-2--2-2-2-2--|--0-0-0-0--0-0-0-0--|---------------------|--5-5-5-5--4-4-4-4-----------|


************************************

| /   Slide up
| PM  Palm mute

Almost there ...

Sign in to get your own page with links to favourite songs and more. You are just one click away...

Login with Facebook Login with Google