Search tabs and chords

Search for song, artist or band

Log in

One click and you are in

Login with Facebook Login with Google

Why sign up and log in

Guitar Tabs Explorer
Rammstein guitar tabs for Ohne dich acoustic

Guitar tabs with lyrics

Tuning: Standard (E chord diagramEE A chord diagramAA D chord diagramDD G chord diagramGG B chord diagramBB E chord diagramEE)

Key: Dm chord diagramDmDm

Difficulty: Intermediate

Intro:
   Dm chord diagramDmDm                       Am chord diagramAmAm                       Gm chord diagramGmGm                       F chord diagramFF           Am chord diagramAmAm
e|--1-----1-----1-----1----|-0-----0-----0-----0----|-3-----3-----3-----3----|-1-----1-----0-----3----|
B|--3-----3-----3-----3----|-1-----1-----1-----1----|-3-----3-----3-----3----|-1-----1-----1-----1----|
G|-----2-----2-----2-----2-|----2-----2-----2-----2-|----3-----3-----3-----3-|----2-----2-----2-----2-|
D|--0----------------------|------------------------|------------------------|------------------------|
A|-------------------------|-0----------------------|------------------------|-------------0----------|
E|-------------------------|------------------------|-3----------------------|-1----------------------|

Verse 1:
  Dm chord diagramDmDm                        Am chord diagramAmAm                       Gm chord diagramGmGm                       F chord diagramFF           Am chord diagramAmAm
e|------------5----5--5--6-|-5----------------------|-3--3----3--3-3---5---3-|-1-----3--1--0----------|
B|-------3-----------------|----5-----5-------------|-3----------3-----------|-1-----------1-----1----|
G|----2-----2--------------|----5-----5--------5----|-3----------3-----------|-2-----------2-----2----|
D|-0------------0-----0----|----------------6-----6-|------------------------|------------------------|
A|-------------------------|------------------------|------------------------|-------------0--0-----0-|
E|-------------------------|-5-----5-----5----------|-3-----3----3-----------|-1--1-------------------|

  Dm chord diagramDmDm                        Am chord diagramAmAm                       Gm chord diagramGmGm                       F chord diagramFF           Am chord diagramAmAm
e|-----------------0--1----|-0-----1--0-------------|----3--3--3--5-3--5---3-|-1-----3--1--0----------|
B|-------3----3----------3-|-1-----------------1----|-------3-----3----3-----|-1-----1--1--1-----1----|
G|----2-----2--------------|----2-----------2-----2-|-------3-----3----3-----|-2-----2--2--2-----2----|
D|-0------------0----------|------------------------|------------------------|------------------------|
A|-------------------------|-0-----------0----------|------------------------|-------------0--0-----0-|
E|-------------------------|------------------------|-3-----3-----3----3-----|-1--1-------------------|

  Dm chord diagramDmDm                        Am chord diagramAmAm                       Gm chord diagramGmGm                       F chord diagramFF            Am chord diagramAmAm
e|-----------------0--1----|-0-----1--0-------------|-3-----5--3--3----------|-1--1-1-3--1--0-0-0--1--0-|
B|-------3----3----------3-|-1-----------------1----|-3-----3--3--3-----3----|-1------1-----1------1----|
G|----2-----2--------------|----2-----------2-----2-|-3-----3--3--3-----3----|-2------2-----2------2----|
D|-0------------0----------|------------------------|------------------------|--------------------------|
A|-------------------------|-0-----------0----------|------------------------|--------------0------0----|
E|-------------------------|------------------------|-3--3--------3--3-----3-|-1------1-----------------|

Chorus:
  Dm chord diagramDmDm                      Am chord diagramAmAm                        Gm chord diagramGmGm                       F chord diagramFF            Am chord diagramAmAm
e|-----------------0-----|-0--1-0------------------|-3--3--3--3--3--5-3-----|-1--3-1-------0--0-0------|
B|-3--3-3----3--3-----3--|-1---------1--------1----|-3-----3-----3--------3-|-1---------1--1---------1-|
G|-2---------------------|-2---------2-----2-----2-|-3-----3-----3--------3-|-2---------2--2---------2-|
D|-0------0-----0-----0--|-------------------------|------------------------|--------------------------|
A|-----------------------|-0------0-----0----------|------------------------|--------------0------0----|
E|-----------------------|-------------------------|-3-----3-----3------3---|-1------1-----------------|

  Dm chord diagramDmDm                        Am chord diagramAmAm                        Gm chord diagramGmGm                       F chord diagramFF            Am chord diagramAmAm
e|-----------------0--1----|-0--1-0------------------|-3--3--3--3--3--5-3-----|-1--3-1-------5--5-5----5-|
B|-3--3-3----3--3--------3-|-1---------1--------1----|-3-----3-----3--------3-|-1---------1--5-----------|
G|-2-----------------------|-2---------2-----2-----2-|-3-----3-----3--------3-|-2---------2--5-----------|
D|-0------0-----0-----0----|-------------------------|------------------------|--------------------------|
A|-------------------------|-0------0-----0----------|------------------------|--------------------------|
E|-------------------------|-------------------------|-3-----3-----3------3---|-1------1-----5------5----|

Bridge:
  Dm chord diagramDmDm                       Am chord diagramAmAm                       Gm chord diagramGmGm                      F chord diagramFF           Am chord diagramAmAm
e|------------------------|-5-----5----------------|-3-----3--3----3--3--3-|-1-----1-----0-----3----|
B|-6--6--6--6--6--6--5--6-|-5-----5-----5-----5----|-3-----3--3----3--3--3-|-1-----1-----1-----1----|
G|-7-----7-----7-----7----|-5-----5-----5-----5----|-3-----3--3----3--3--3-|-2-----2-----2-----2----|
D|-7-----7-----7-----7----|-------------6-----6----|-----------------------|------------------------|
A|-5-----5-----5-----5----|------------------------|-----------------------|-------------0--0--0--0-|
E|------------------------|-5--5--5--5--5--5--5--5-|-3--3-----3-------3----|-1--1-----1-------------|

Verse 2:
The second Verse is identical to the first Verse exept from the first line (And you can leave out the second
line too if you want. Whatever you think sounds better :)
  Dm chord diagramDmDm                        Am chord diagramAmAm                       Gm chord diagramGmGm                       F chord diagramFF        Am chord diagramAmAm
e|-------5----5----5--5--6-|-5----------------------|----3--3--3--5-3--5---3-|-1-----3--1--0----------|
B|-------3----3------------|-5--5-----5-------------|-------3-----3----3-----|-1-----1--1--1-----1----|
G|----2-----2--------------|-5--5-----5--------5----|-------3-----3----3-----|-2-----2--2--2-----2----|
D|-0------------0-----0----|----------------6-----6-|------------------------|------------------------|
A|-------------------------|------------------------|------------------------|-------------0--0-----0-|
E|-------------------------|-5-----5-----5----------|-3-----3-----3----3-----|-1--1-------------------|

For the Outro I just play the Brige again and end on a Dm chord diagramDmDm slowly strummed down in the 5th Fret.
If you can sing or you have a friend that can sing you can also just strumm the chords that are written above
the tabs. I also put them here so you (roughly) see what chord you fingers should be on while you play it.
For the length of the notes... Sorry. I'm really bad at determiting how long the notes are. :/
But if you listen to the song you should be able to find that out on your own.

Other versions of Ohne Dich Acoustic

Ohne dichChords
Ohne dich (Ver. 2)Chords
Ohne dich (Ver. 3)Chords
Ohne dichTabs

Almost there ...

Sign in to get your own page with links to favourite songs and more. You are just one click away...

Login with Facebook Login with Google