Search tabs and chords

Search for song, artist or band

Log in

One click and you are in

Login with Facebook Login with Google

Why sign up and log in

Guitar Tabs Explorer
Rammstein guitar tabs for Mein teil (Ver. 2)

Guitar tabs

----------------------------------------------------------------------------
Mein Teil- Rammstein
----------------------------------------------------------------------------
Tabbed by:Fabe

Tuning:I think you drop D chord diagramDD tuning

Intro: Not sure how many times you repeat

e|------------------------------|
B|------------------------------|
G|------------------------------|
D|-2-0-2--2-0-2-3--2-0-2--2-0-2-|
A|-2-0-2--2-0-2-3--2-0-2--2-0-2-|
D|-2-0-2--2-0-2-3--2-0-2--2-0-2-|

This ends the intro

e|------------------------------|
B|------------------------------|
G|------------------------------|
D|-2-0-2--2-0-2--2-0-2--2-0-2---|
A|-2-0-2--2-0-2--2-0-2--2-0-2---|
D|-2-0-2--2-0-2--2-0-2--2-0-2---|

Chorus: Let the last three notes ring
Play three times

e|-------------------------------|
B|-------------------------------|
G|-------------------------------|
D|-2-0-2--2-0-2-3--2-0--2--0--3--|
A|-2-0-2--2-0-2-3--2-0--2--0--3--|
D|-2-0-2--2-0-2-3--2-0--2--0--3--|

End Chorus by playing this

e|-------------------------------|
B|-------------------------------|
G|-------------------------------|
D|-2-0-2--2-0-2-3--2-0--2--3--0--|
A|-2-0-2--2-0-2-3--2-0--2--3--0--|
D|-2-0-2--2-0-2-3--2-0--2--3--0--|

Other versions of Mein Teil

Mein teilTabs

Almost there ...

Sign in to get your own page with links to favourite songs and more. You are just one click away...

Login with Facebook Login with Google