Guitar Tabs Explorer
Rammstein guitar tabs for Du riechst so gut (Ver. 3)

Du Riechst So Gut tab


Be the first to rate

Du Riechst So Gut tab by Rammstein (Ver. 3)

Guitar tabs

Print
Tuning: Drop D chord diagramDD


Main riff:

(Guitar 1)

e|---||------------------------------------------------|
B|---||------------------------------------------------|
G|-7b||------------------------------------------------|
D|---||------------------------------------------------|  Repeat as needed
A|---||-0-1--0-1--0-1--1--0-1--0--0-1--0-1--0-1--1--0-1|
D|---||-0-1--0-1--0-1--1--0-1--0--0-1--0-1--0-1--1--0-1|


Main Riff:

(Guitar 2)

e|---||------------------------------------------------|
B|---||------------------------------------------------|
G|---||------------------------------------------------|
D|-7b||------------------------------------------------|
A|---||-0-1--0-1--0-1--1--0-1--0--0-1--0-1--0-1--1--0-1|
D|---||-0-1--0-1--0-1--1--0-1--0--0-1--0-1--0-1--1--0-1|


Chorus:

e|--------------------------------------------------------------|
B|--------------------------------------------------------------|
G|-------------------------------------------------------5--3--2|  Repeat as needed
D|-5--8--0---------------5--8--0---------------5--8--0---5--3--2|
A|-5--8--0---0--0-0--0---5--8--0---0--0-0--0---5--8--0---3--1--0|
D|-5--8--0---0--0-0--0---5--8--0---0--0-0--0---5--8--0----------|


Solo:

e|---------------------------------------------------------------------------------|
B|---------------------------------------------------------------------------------|
G|-12p0-12p0-12p0-12p0-11p0-11p0-11p0-12p0-----------------------------------------|
D|------------------------------------------12p0-12p0-12p0-12p0-14p0-12p0-14p0-12p0|
A|---------------------------------------------------------------------------------|
D|---------------------------------------------------------------------------------|



******************************
|b           Bend
|p           Pull-off
******************************

Other versions of Du Riechst So Gut

- Du riechst so gutTabs
- Du riechst so gut (Ver. 2)Tabs

Comment this song and these guitar tabs

Do you have corrections, comments on the guitar tabs, thoughts about the song or a message to the author? Write them below.