Search tabs and chords

Search for song, artist or band

Log in

One click and you are in

Login with Facebook Login with Google

Why sign up and log in

Guitar Tabs Explorer
Rammstein guitar tabs for Du riechst so gut (Ver. 2)

Guitar tabs

Du riechst so gut    Tuning in Drop A chord diagramD MajorD   D-A-D-G-B-e

comments:

H.A. = Pinch Harmonic
h = Hammer On
. = Palm Mute
/ "or" \ = Slide

i dont think they really play the guitar untill the chorus, but when youre playing the
song by yourself, it sounds better when you play the intro along with the bass and
keyboard.

im not sure the muting in the chorus is right, i havent been able to test it, cause
i broke my wrist. its a great song, have fun.

-intro (16x)(palm mute):
   H.A.                                        H.A

E|--------------------------------------------------|
B|--------------------------------------------------|
G|--------------------------------------------------|
D|--3--0h1-0h1--0h1-1-0h1--0-0h1-0h1-0h1-1-0h1--3---|
A|-----0h1-0h1--0h1-1-0h1--0-0h1-0h1-0h1-1-0h1------|
D|-----0h1-0h1--0h1-1-0h1--0-0h1-0h1-0h1-1-0h1------|

     .   .    .     .    . .   .   .     .


-(silence). Der Wahnsinn!


-verse 1 (no guitar):
ist nur eine schmale Brücke.
Die Ufer sind vernuft und trieb.
Ich steig dir nach, das Sonnelicht den geist verwirrt.
Ein blindes Kind das vorwärts kriegt, weil es seine Mutter riecht.

-intro (8x)

-(silence). Ich finde dich!

-verse 2 (no guitar):
Die Spur ist frisch und auf die Brücke.
Tropf dein SchweiB, dein warmes Blut.
Ich seh dich nicht, ich riech dich nur ich spüre dich
Ein Raubtier das vor Hunger schreit, witter ich dich meilenweit

-chorus

E|-------------------------------|---------------play 3x--------)|
B|-------------------------------|-------------------------------|
G|-------------------------------|-------------------------------|
D|-------5\----/8-----------0----|-------0-00--------------------|
A|-------5\----/8-----------0----|-------0-00--------------------|
D|-------5\----/8-----------0----|-------0-00--------------------|

                                         . ..
          Du    riechst so  guuuuuuuut,
          Du    riechst so  guuuuuuuut,
          Du    riechst so  guuuuuuuut...ich geh dir hinterhe


e|(------------------------------|---------------play 1x--------)|
B|-------------------------------|-------------------------------|
G|-------------------------------|-------------------------------|
D|------/8---7---7/12------------|-------------------------------|
A|------/8---7---7/12------------|-------------------------------|
D|------/8---7---7/12------------|-------------------------------|


         ich finde dich

(repeat 1st part, violins start playing)
                          so  guu....       ...uuut.
                          So  gut.  Ich steig dir nach
          Du      riechst so  guu....       ...uuut,

(repeat 2nd part)
 gleich           hab ich     diii...      ...iiich.


-intro (8x)

-(silence). Jetzt hab ich dich!


-verse 3 (no guitar):
Ich warte bis es dunkel ist.
Dann FaB ich an die nasse Haut.
Verrate mich nicht, oh siehst du nicht die Brücke brennt?
Hör auf zu schreien und wehr dich nicht, weil sie sonst auseiander bricht.

-chorus (same text)

-solo (4x)

E|--------------------------------|
B|8-8-8-8-7-7-7-8-----------------|
G|----------------7-7-7-7-9-7-9-7-|
D|--------------------------------|
A|--------------------------------|
D|--------------------------------|


-chorus

          Du      riechst so  guu....       ...uuut.
          Du      riechst so  guuuuuuut,       ich geh dir hinter-
-her.     Du      riechst so  guu....       ...uuut,
ich               fiii..  .iinde dii...    ...iiich...

  (violins start playing) so  guu....       ...uuut
                          so  gut.  ich    faB dich     an.
          Du      riechst so  guu....       ...uuut,
jetzt             hab ich     diii...      ...iiich.

          Du      riechst so  guu....       ...uuut.
          Du      riechst so  guuuuuuut,       ich geh dir hinter-
-heee....                               ....eeeerrr.
          ....

-end with:
E|-------------------------------|
B|-------------------------------|
G|-------------------------------|
D|---5---------------------------|
A|---5---------------------------|

Other versions of Du Riechst So Gut

Du riechst so gutTabs
Du riechst so gut (Ver. 3)Tabs

Almost there ...

Sign in to get your own page with links to favourite songs and more. You are just one click away...

Login with Facebook Login with Google