Guitar Tabs Explorer
Rammstein bass tabs for Donaukinder

Donaukinder bass tab


Be the first to rate

Donaukinder bass tab by Rammstein

Bass tabs

Print
Rammstein – Donaukinder (bass)
Tuning: Drop D (DADG)

*Rhythm is quite easy to figure out in Rammstein songs so i didn't think it was
necessary to write down every note.

Many cool improvisations can be played in this song, have fun!


00:30

G|---------------------------------------------------------------|
D|---------------------------------------------------------------|
A|---------------------------------------------------------------|
D|-0---5---3---2---3---3---7-------------------------------------|

G|---------------------------------------------------------------|
D|---------------------------------------------------------------|
A|---------------------------------------------------------------|
D|-0---5---3---2---3---7---0-------------------------------------|


01:04

G|---------------------------------------------------------------|
D|---------------------------------------------------------------|
A|---------------------------------------------------------------|
D|-8---5---0---10-------8---10---0-------------------------------|

G|---------------------------------------------------------------|
D|---------------------------------------------------------------|
A|---------------------------------------------------------------|
D|-8---5---0---10-------8---10---7-------------------------------|


01:36

G|---------------------------------------------------------------|
D|---------------------------------------------------------------|
A|---------------------------------------------------------------|
D|-0---5---3---2---3---3---7-------------------------------------|

G|---------------------------------------------------------------|
D|---------------------------------------------------------------|
A|---------------------------------------------------------------|
D|-0---5---3---2---3---7---0-------------------------------------|


02:08

G|---------------------------------------------------------------|
D|---------------------------------------------------------------|
A|---------------------------------------------------------------|
D|-8---5---0---10-------8---10---0-------------------------------|

G|---------------------------------------------------------------|
D|---------------------------------------------------------------|
A|---------------------------------------------------------------|
D|-8---5---0---10-------8---5---7--------------------------------|


02:40

G|---------------------------------------------------------------|
D|---------------------------------------------------------------|
A|---------------------------------------------------------------|
D|-0---5---3---2---3---3---7-------------------------------------|

G|---------------------------------------------------------------|
D|---------------------------------------------------------------|
A|---------------------------------------------------------------|
D|-0---5---3---2---3---7---0-------------------------------------|


03:12

G|---------------------------------------------------------------|
D|---------------------------------------------------------------|
A|---------------------------------------------------------------|
D|-8---5---0---10-------8---10---0-------------------------------|

G|---------------------------------------------------------------|
D|---------------------------------------------------------------|
A|---------------------------------------------------------------|
D|-8---5---0---10-------8---5---7--------------------------------|


04:04

G|---------------------------------------------------------------|
D|---------------------------------------------------------------|
A|---------------------------------------------------------------|
D|-0---5---3---2---3---3---7-------------------------------------|

G|---------------------------------------------------------------|
D|---------------------------------------------------------------|
A|---------------------------------------------------------------|
D|-0---5---3---2---3---7---0-------------------------------------|


04:36

G|---------------------------------------------------------------|
D|---------------------------------------------------------------|
A|---------------------------------------------------------------|
D|-0---5---3---2---3---3---7-------------------------------------|

G|---------------------------------------------------------------|
D|---------------------------------------------------------------|
A|---------------------------------------------------------------|
D|-0---5---3---2---3---7---0-------------------------------------|

Other versions of Donaukinder

Donaukinder (Ver. 2)Bass tabs

Comment this song and these bass tabs

Do you have corrections, comments on the bass tabs, thoughts about the song or a message to the author? Write them below.