Search tabs and chords

Search for song, artist or band

Log in

One click and you are in

Login with Facebook Login with Google

Why sign up and log in

Guitar Tabs Explorer
Rammstein guitar tabs for Deutschland

Guitar tabs

Tuning: Drop C chord diagramCC (C chord diagramCC G chord diagramGG C chord diagramCC F chord diagramFF A chord diagramAA D chord diagramDD)

Difficulty: Intermediate

Intro:

D|-------|-------|--------|--------|-------|-------|---------|
A|-------|-------|--------|--------|-------|-------|---------|
F| chord diagramF|F|-------|-------|--------|--------|-------|-------|---------|
C|2 chord diagramC|2C|2------|----5-7|12------|----12-2|3------|2------|---------| x2
G|2------|----5-7|12------|----12-2|3------|2------|---------|
C|2 chord diagramC|2C|2------|----5-7|12------|----12-2|3------|2------|/14------|

D|0-0-7-0-0-8-0-0-10-0-0-7-0-0-8-5-0|
A|----------------------------------|
F| chord diagramF|F|----------------------------------|
C| chord diagramC|C|----------------------------------| x4
G|----------------------------------|
C| chord diagramC|C|----------------------------------|

D|-------|-------|--------|--------|-------|-------|---------|
A|-------|-------|--------|--------|-------|-------|---------|
F| chord diagramF|F|-------|-------|--------|--------|-------|-------|---------|
C|2 chord diagramC|2C|2------|----5-7|12------|----12-2|3------|2------|---------|
G|2------|----5-7|12------|----12-2|3------|2------|---------|
C|2 chord diagramC|2C|2------|----5-7|12------|----12-2|3------|2------|/14------|

Verse:

Nothing is played during the verse


Chorus:


D|-------|-------|--------|------|-------|-------|---------|
A|-------|-------|--------|------|-------|-------|---------|
F| chord diagramF|F|-------|-------|--------|------|-------|-------|---------|
C|2 chord diagramC|2C|2------|----5-7|12------|----12|3------|2------|---------|
G|2------|----5-7|12------|----12|3------|2------|---------|
C|2 chord diagramC|2C|2------|----5-7|12------|----12|3------|2------|/14------|

D|-------|-------|-------|------|-------|-------|-------|
A|-------|-------|-------|------|-------|-------|-------|
F| chord diagramF|F|-------|-------|-------|------|-------|-------|-------|
C|2 chord diagramC|2C|2------|------2|0------|-----0|3------|2------|2------|
G|2------|------2|0------|-----0|3------|2------|2------|
C|2 chord diagramC|2C|2------|------2|0------|-----0|3------|2------|2------|


D|0-0-7-0-0-8-0-0-10-0-0-7-0-0-8-5-0|
A|----------------------------------|
F| chord diagramF|F|----------------------------------|
C| chord diagramC|C|----------------------------------| x4
G|----------------------------------|
C| chord diagramC|C|----------------------------------|


Verse:

D|-----------------------|-----------------------|-----------------------|-----------------------|
A|-----------------------|-----------------------|-----------------------|-----------------------|
F| chord diagramF|F|-----------------------|-----------------------|-----------------------|-----------------------|
C| chord diagramC|C|-----------------------|-----------------------|-----------------------|-----------------------|
G|-----------------------|-----------------------|-----------------------|-----------------------|
C|2 chord diagramC|2C|2-2--2-2--2-2--2-2--2-2|2-2--2-2--2-2--2-2--2-2|3-3--3-3--3-3--3-3--3-3|3-3--3-3--3-3--3-3--3-3|
  * *  * *  * *  * *  * * * *  * *  * *  * *  * * * *  * *  * *  * *  * * * *  * *  * *  * *  * *

e|-----------------------|-----------------------|-----------------------|---------|
B|-----------------------|-----------------------|-----------------------|---------|
G|-----------------------|-----------------------|-----------------------|---------|
D|-----------------------|-----------------------|-----------------------|---------|
A|-----------------------|-----------------------|-----------------------|---------|
E|0-0--0-0--0-0--0-0--0-0|0-0--0-0--0-0--0-0--0-0|2-2--2-2--2-2--2-2--2-2|2-2------|
  * *  * *  * *  * *  * * * *  * *  * *  * *  * * * *  * *  * *  * *  * * * *
Chorus:


D|-------|-------|--------|------|-------|-------|---------|
A|-------|-------|--------|------|-------|-------|---------|
F| chord diagramF|F|-------|-------|--------|------|-------|-------|---------|
C|2 chord diagramC|2C|2------|----5-7|12------|----12|3------|2------|---------|
G|2------|----5-7|12------|----12|3------|2------|---------|
C|2 chord diagramC|2C|2------|----5-7|12------|----12|3------|2------|/14------|


D|-------|-------|-------|------|-------|-------|-------|
A|-------|-------|-------|------|-------|-------|-------|
F| chord diagramF|F|-------|-------|-------|------|-------|-------|-------|
C|2 chord diagramC|2C|2------|------2|0------|-----0|3------|2------|2------|
G|2------|------2|0------|-----0|3------|2------|2------|
C|2 chord diagramC|2C|2------|------2|0------|-----0|3------|2------|2------|


D|0-0-7-0-0-8-0-0-10-0-0-7-0-0-8-5-0|
A|----------------------------------|
F| chord diagramF|F|----------------------------------|
C| chord diagramC|C|----------------------------------| x4
G|----------------------------------|
C| chord diagramC|C|----------------------------------|


Outro:

D|-------|-------|--------|------|-------|-------|---------|
A|-------|-------|--------|------|-------|-------|---------|
F| chord diagramF|F|-------|-------|--------|------|-------|-------|---------|
C|2 chord diagramC|2C|2------|----5-7|12------|----12|3------|2------|---------|
G|2------|----5-7|12------|----12|3------|2------|---------|
C|2 chord diagramC|2C|2------|----5-7|12------|----12|3------|2------|/14------|


D|-------|-------|-------|------|-------|-------|-------|
A|-------|-------|-------|------|-------|-------|-------|
F| chord diagramF|F|-------|-------|-------|------|-------|-------|-------|
C|2 chord diagramC|2C|2------|------2|0------|-----0|3------|2------|2------|
G|2------|------2|0------|-----0|3------|2------|2------|
C|2 chord diagramC|2C|2------|------2|0------|-----0|3------|2------|2------|


D|0-0-7-0-0-8-0-0-10-0-0-7-0-0-8-5-0|
A|----------------------------------|
F| chord diagramF|F|----------------------------------|
C| chord diagramC|C|----------------------------------| x4
G|----------------------------------|
C| chord diagramC|C|----------------------------------|



************************************

| /  Slide up

************************************

Other versions of Deutschland

DeutschlandChords
Deutschland (Ver. 2)Chords

Almost there ...

Sign in to get your own page with links to favourite songs and more. You are just one click away...

Login with Facebook Login with Google