Search tabs and chords

Search for song, artist or band

Log in

One click and you are in

Login with Facebook Login with Google

Why sign up and log in

Guitar Tabs Explorer
Rammstein guitar tabs for Das modell (Ver. 2)

Guitar tabs

Tabbed by: VioletN62

Song - Name
Artist - Rammstein

Note - Best read if you copy and paste into word using the "Courier New" font, and using
View" instead of "Page Layout View"

Main Riff

e|-----------------------------------------------------------------|
B|-----------------------------------------------------------------|
G|-----------------------------------------------------------------|
D|-5-5-5-5-5---5-5-5-5-8---5-5-8---0-0-0-0-0---0-0-0-0-3---0-0-3---|
A|-5-5-5-5-5---5-5-5-5-8---5-5-8---0-0-0-0-0---0-0-0-0-3---0-0-3---|
D|-5-5-5-5-5---5-5-5-5-8---5-5-8---0-0-0-0-0---0-0-0-0-3---0-0-3---|
PM . . . .     . . . .     . .     . . . .     . . . .     . .
Sometimes on the 2nd or 4th time, the start of the riff is slightly different

e|-----------------------------------------------------------------|
B|-----------------------------------------------------------------|
G|-----------------------------------------------------------------|
D|-5---5-5-5---5-5-5-5-8---5-5-8---0-0-0-0-0---0-0-0-0-3---0-0-3---|
A|-5---5-5-5---5-5-5-5-8---5-5-8---0-0-0-0-0---0-0-0-0-3---0-0-3---|
D|-5---5-5-5---5-5-5-5-8---5-5-8---0-0-0-0-0---0-0-0-0-3---0-0-3---|
PM .   . .     . . . .     . .     . . . .     . . . .     . .

Or

e|-----------------------------------------------------------------|
B|-----------------------------------------------------------------|
G|-----------------------------------------------------------------|
D|-3/5---5-5-5---5-5-5-5-8---5-5-8---0-0-0-0-0---0-0-0-0-3---0-0-3-|
A|-3/5---5-5-5---5-5-5-5-8---5-5-8---0-0-0-0-0---0-0-0-0-3---0-0-3-|
D|-3/5---5-5-5---5-5-5-5-8---5-5-8---0-0-0-0-0---0-0-0-0-3---0-0-3-|
PM   .   . .     . . . .     . .     . . . .     . . . .     . .


Other Riff...
e|-----------------------------------------------------------------|
B|-----------------------------------------------------------------|
G|-----------------------------------------------------------------|
D|-8---------------7-----------(5)-3---------------3---------------|
A|-8---------------7-----------(5)-3---------------3---------------|
D|-8---------------7-----------(5)-3---------------3---------------|

Continued...
e|-----------------------------------------------------------------------|
B|-----------------------------------------------------------------------|
G|-----------------------------------------------------------------------|
D|-8---------------7---------------12------------------------------------|
A|-8---------------7---------------12--------------9-9-9-10-12-12-12-12--|
D|-8---------------7---------------12------------------------------------|

Other versions of Das Modell

Das modellTabs

Almost there ...

Sign in to get your own page with links to favourite songs and more. You are just one click away...

Login with Facebook Login with Google