Guitar Tabs Explorer
Rammstein bass tabs for Buckstabu

Buckstabu bass tab


Be the first to rate

Buckstabu bass tab by Rammstein

Bass tabs

Print

NOTE: These tabs were made on a 5-string bass. I know not many people have these, so I apologize.

Intro/Main Riff:

G|---------------|-----------------------------|
D|---------------|-----------------------------|
A|---------------|-----------------------------|
E|-4-------------|---4-----4-----4-----4-------|
B|----6----------|-----3-3--3-3--3-3-----5-5---| x3, then:

(1st time):

G|---------------|
D|---------------|
A|---------------|
E|-3-----4-3-----|
B|-----------3---|

(Repeat 2nd part of intro, then for the 2nd time):

G|---------------|
D|---------------|
A|---------------|
E|---4-----3-----|
B|---------------|

(Repeat 2nd part of intro again)

Pre-Chorus:

G|---------------------------------------------------------|
D|---------------------------------------------------------|
A|---------------------------------------------------------|
E|-------------------------3-3-3-3-3-3-4-4-4-3-3-3---------|
B|-3-3-3-3-3-3-3-3-3-3-3-3---------------------------------| x2

(Repeat full intro for chorus)

Bridge Part 1:

G|-----------------------------------------------------|
D|-----------------------------------------------------|
A|-----------------------------------------------------|
E|-1-1-1-1-1-1-1-1-1-1-1-1-0-0-0-0-0-0-0-0-0-0-0-0-----|
B|-----------------------------------------------------|

G|-----------------------------------------------------|
D|-----------------------------------------------------|
A|-----------------------------------------------------|
E|-3-3-3-3-3-3-3-3-3-3-3-3-2-2-2-2-2-2-2-2-2-2-2-2-----|
B|-----------------------------------------------------|

G|-----------------------------------------------------|
D|-----------------------------------------------------|
A|-----------------------------------------------------|
E|-1-1-1-1-1-1-1-1-1-1-1-1-0-0-0-0-0-0-0-0-0-0-0-0-----|
B|-----------------------------------------------------|

G|-----------------------------------------------------|
D|-----------------------------------------------------|
A|-----------------------------------------------------|
E|-3-3-3-3-3-3-3-3-3-3-3-3-1-1-1-1-1-1-1-1-1-1-1-1-----|
B|-----------------------------------------------------|

Part 2:

G|---------------|---------------------------------|
D|---------------|---------------------------------|
A|---------------|---------------------------------|
E|-7-3-3-7-3-3-7-3-3-2-2-2-------------------------|
B|---------------|---------------------------------| x8

(Pre-Chorus again here, x8)

(And finally, the main riff 4x)

Comment this song and these bass tabs

Do you have corrections, comments on the bass tabs, thoughts about the song or a message to the author? Write them below.