Search tabs and chords

Search for song, artist or band

Log in

One click and you are in

Login with Facebook Login with Google

Why sign up and log in

Guitar Tabs Explorer
Rammstein guitar chords for Buck dich

Guitar chords

Tuning: Drop D chord diagramDD

I can not hear any palm mutes in between the
chords, only right before them, which are the'
2 zeros.
[Intro]
                              x3
e|----------------------------||-------------------|
B|----------------------------||-------------------|
G|----------------------------||-------------------|
D|------3--2--3--5--3--0-2-3-0||------3--2--3--5--3|
A|-0-0--3--2--3--5--3--0-2-3-0||-0-0--3--2--3--5--3|
D|-0-0--3--2--3--5--3--0-2-3-0||-0-0--3--2--3--5--3|
   . .                           . .


e|----------------------------|
B|----------------------------|
G|----------------------------| x4
D|------3--2--3--5--3--0-2-3-0|
A|-0-0--3--2--3--5--3--0-2-3-0|
D|-0-0--3--2--3--5--3--0-2-3-0|
   . .


[End of Verse 1:]

e|--------|
B|--------|
G|--------|
D|-0-2-3-0|
A|-0-2-3-0|
D|-0-2-3-0|

[Chorus:]
                              x3
e|----------------------------||-------------------|
B|----------------------------||-------------------|
G|----------------------------||-------------------|
D|------3--2--3--5--3--0-2-3-0||------3--2--3--5--3|
A|-0-0--3--2--3--5--3--0-2-3-0||-0-0--3--2--3--5--3|
D|-0-0--3--2--3--5--3--0-2-3-0||-0-0--3--2--3--5--3|
   . .                           . .


e|----------------------------|
B|----------------------------|
G|----------------------------| x4
D|------3--2--3--5--3--0-2-3-0|
A|-0-0--3--2--3--5--3--0-2-3-0|
D|-0-0--3--2--3--5--3--0-2-3-0|


[Verse 2:]
                                  x4
e|--------------------------------||--------------------------------|
B|--------------------------------||--------------------------------|
G|--------------------------------||--------------------------------|
D|--------------------------------||--------------------------------|
A|--------------------------------||-----3---2---3---5--3----0-2-3-2|
D|-0-0-3-0-2-0-3-0-5-0-3-0-0-2-3-0||-0-0-3-0-2-0-3-0-5-0-3-0-0-2-3-2|
   . . . . . . . . . . . . . . . .   . . . . . . . . . . . . . . . .


[Bridge:]

      x8
e|----||------|
B|----||------|
G|----||------|
D|---1||---1-0|
A|-0-1||-0-1-0|
D|-0-1||-0-1-0|
   .     .

                              x2
e|----------------------------||
B|----------------------------||
G|----------------------------||
D|------3--2--3--5--3--0-2-3-0||
A|-0-0--3--2--3--5--3--0-2-3-0||
D|-0-0--3--2--3--5--3--0-2-3-0||
   . .

      x8
e|----||-------|
B|----||-------|
G|----||-------|
D|---1||---1-0~|
A|-0-1||-0-1-0~|
D|-0-1||-0-1-0~| <---- Let ring out all the way
   .     .


[Ending Riff:]

      x16
e|----||------|
B|----||------|
G|----||------|
D|---1||---1-0|
A|-0-1||-0-1-0|
D|-0-1||-0-1-0|
   .     .



************************************

| ~  Vibrato

Other versions of Buck Dich

Buck dichChords
Buck dichTabs

Almost there ...

Sign in to get your own page with links to favourite songs and more. You are just one click away...

Login with Facebook Login with Google