Log in

One click and you are in

Login with Facebook Login with Google

Why sign up and log in

Guitar Tabs Explorer
Rammstein bass tabs for Bestrafe mich (Ver. 2)

Bass tabs

Tuning: DADG

Main Riff

G|---------------------------------------------------------------------|
D|----------------------------------------------------2-----2-----2-0--|
A|-2-----2-----2----2-----2-----2----3-----3-----3---------------------|
D|---0-2---0-2---2----0-2---0-2---2----0-2---0-2---2----0-2---0-2------|

G|----------------------------------|
D|----------------------------------|
A|-3-----3-----3----2-----2-----2---|
D|---0-2---0-2---2----0-2---0-2---2-|

Pre Verse 1

G|-------------------------------------------|
D|-------------------------------------------|
A|-------------------------------------------|
D|-3p2-2-2-2--3ph-2-2-2--3p2-2-2-2--/5\-2-2--|

G|--------------------------------------------------|
D|--------------------------------------------------|
A|--------------------------------------------------|
D|-3p2-2-2-2--3p2-2-2-2--3ph-2-2-2--5-3-2-2-5-3-2-2-|

Pre Verse 2

G|-------------------------------------|
D|-------------------------------------|
A|-------------------------------------|
D|-2-2--2--2--2--2--2--5-3-2-2-5-3-2-2-|

Verse 1

G|---------------------------------|
D|---------------------------------|
A|---------------------------------|
D|-2-2-2-2-2-2-2-2-2-2-2-2-2-2-1-0-|

Verse 2
                                  x3
G|---------------------------------|------------------------------|
D|---------------------------------|------------------------------|
A|---------------------------------|------------------------------|
D|-2-2-2-2-2-2-2-2-2-2-2-2-2-2-1-0-|-2-2-2-2-2-2-2-2-2-2-2--------|

Outro

G|------------------------------------------------------------------------|
D|------------------------------------------------------------------------|
A|-------------------------2-2--2-2-2--2-2--2-2-2--3-3--3-3-3--3-3--3-3-3-|
D|-2-2--2-2-2--2-2--2-2-2-------------------------------------------------|

G|------------------------------------------------------------------------|
D|-2-2--2-2-2--2-2--2-2-2-------------------------------------------------|
A|-------------------------3-3--3-3-3--3-3--3-3-3--2-2--2-2-2--2-2--2-2-2-|
D|------------------------------------------------------------------------|

G|------------------------------------------------------------------------|
D|------------------------------------------------------------------------|
A|-------------------------2-2--2-2-2--2-2--2-2-2--3-3--3-3-3--3-3--3-3-3-|
D|-2-2--2-2-2--2-2--2-2-2-------------------------------------------------|

G|------------------------------------------------------------------------|
D|-2-2--2-2-2--2-2--2-2-2-------------------------------------------------|
A|-------------------------3-3--3-3-3--3-3--3-3-3--2-2--2-2-2--2-2--2-2-2-|
D|------------------------------------------------------------------------|

G|---------------------------|
D|---------------------------|
A|---------------------------|
D|-2--2--5-3-2-2-5-3-2-2--2--|

Order:
Synth Intro
Main Riff x 1
Pre Verse 1 x 1
Pre Verse 2 x 1
Verse 1 x 4
Main Riff x 1
Pre Verse 1 x 1
Verse 2 x 1
Main Riff x 1
Pre Verse 1 x 1
Verse 1 x 4
Main Riff x 2
Outro x 1


| /  slide up
| \  slide down
| h  hammer-on
| p  pull-off
| ~  vibrato
| +  harmonic
| x  Mute note

Other versions of Bestrafe Mich

Bestrafe michBass tabs

Almost there ...

Sign in to get your own page with links to favourite songs and more. You are just one click away...

Login with Facebook Login with Google