Search tabs and chords

Search for song, artist or band

Log in

One click and you are in

Login with Facebook Login with Google

Why sign up and log in

Guitar Tabs Explorer
Rammstein guitar chords for Amour (Ver. 2)

Guitar chords

TUNING: D-A-D-G-B-E

INTRO

E|---------------------------
B|---------------------------
G|--4----5--7---9----7--5-7--
D|----2-----------7----------
A|---------------------------
D|---------------------------

E|-----------------------------------------------------
B|-----------------------------------------------12~~--
G|--4----5--7---9-----11~----11-12-11--9----11---12~~--
D|----------------7------------------------------------
A|------------------------10-------------10------------
D|-----------------------------------------------------

KEYBOARD BEGINNS TO PLAY THAN(till 0:18)

Verse

E|-----------------------------------------------
B|-----------------------------------------------
G|---------------------------------------1-h-0---
D|------1-------1------------3--------1----------
A|---3-------3------3----1--------3--------------
D|-----------------------------------------------

E|-----------------------------------------------
B|-----------------------------------------------
G|---------------------------------------1-h-0---
D|------1-------1------------3--------1----------
A|---3-------3------3----1--------3--------------
D|-----------------------------------------------

E|-----------------------------------------------
B|-----------------------------------------------
G|---------------------------------------1-h-0---
D|------1-------1------------3--------1----------
A|---3-------3------3----1--------3--------------
D|-----------------------------------------------

E|-----------------------------------------------
B|-----------------------------------------------
G|-----------------------------------------------
D|------1-------1------------3-------------------
A|---3-------3------3----1-----------------------
D|-----------------------------------------------

E|-----------------------------------------------
B|-----------------------------------------------
G|---------------------------------------1-h-0---
D|------1-------1------------3--------1----------
A|---3-------3------3----1--------3--------------
D|-----------------------------------------------

E|-----------------------------------------------
B|-----------------------------------------------
G|---------------------------------------1-h-0---
D|------1-------1------------3--------1----------
A|---3-------3------3----1--------3--------------
D|-----------------------------------------------

E|-----------------------------------------------
B|-----------------------------------------------
G|---------------------------------------1-h-0---
D|------1-------1------------3--------1----------
A|---3-------3------3----1--------3--------------
D|-----------------------------------------------

E|-----------------------------------------------
B|-----------------------------------------------
G|---0----0--------1----1------------------------
D|-1----1----1---3----3----3--1------------------
A|-----------------------------------------------
D|-----------------------------------------------

Chorus without guitar

Second Verse

E|-----------------------------------------------
B|-----------------------------------------------
G|---------------------------------------1-h-0---
D|------1-------1------------3--------1----------
A|---3-------3------3----1--------3--------------
D|-----------------------------------------------

E|-----------------------------------------------
B|-----------------------------------------------
G|---------------------------------------1-h-0---
D|------1-------1------------3--------1----------
A|---3-------3------3----1--------3--------------
D|-----------------------------------------------

E|-----------------------------------------------
B|-----------------------------------------------
G|---------------------------------------1-h-0---
D|------1-------1------------3--------1----------
A|---3-------3------3----1--------3--------------
D|-----------------------------------------------

E|-----------------------------------------------
B|-----------------------------------------------
G|-----------------------------------------------
D|------1-------1------------3-------------------
A|---3-------3------3----1-----------------------
D|-----------------------------------------------

E|-----------------------------------------------
B|-----------------------------------------------
G|---------------------------------------1-h-0---
D|------1-------1------------3--------1----------
A|---3-------3------3----1--------3--------------
D|-----------------------------------------------

E|-----------------------------------------------
B|-----------------------------------------------
G|---------------------------------------1-h-0---
D|------1-------1------------3--------1----------
A|---3-------3------3----1--------3--------------
D|-----------------------------------------------

E|-----------------------------------------------
B|-----------------------------------------------
G|---------------------------------------1-h-0---
D|------1-------1------------3--------1----------
A|---3-------3------3----1--------3--------------
D|-----------------------------------------------

E|-----------------------------------------------
B|-----------------------------------------------
G|---0----0--------1----1------------------------
D|-1----1----1---3----3----3--1------------------
A|-----------------------------------------------
D|-----------------------------------------------


Second Chorus (you can use the intro) now with guitar play this here!

E|-----------------------------------------------
B|-----------------------------------------------
G|-----------------------------------------------
D|--10-----3-------------------------------------
A|--10-----3-------------------------------------
D|--10-----3-------------------------------------

E|-----------------------------------------------
B|-----------------------------------------------
G|-----------------------------------------------
D|--10-----3-------------------------------------
A|--10-----3-------------------------------------
D|--10-----3-------------------------------------

E|-----------------------------------------------
B|-----------------------------------------------
G|-----------------------------------------------
D|--5-----3--------------------------------------
A|--5-----3--------------------------------------
D|--5-----3--------------------------------------

E|-----------------------------------------------
B|-----------------------------------------------
G|-----------------------------------------------
D|--5-----6--------------------------------------
A|--5-----6--------------------------------------
D|--5-----6--------------------------------------


Part II of the first Chorus ... 2:18

E|-----------------------------------------------
B|-----------------------------------------------
G|-----------------------------------------------
D|--10-----6-------------------------------------
A|--10-----6-------------------------------------
D|--10-----6-------------------------------------


E|-----------------------------------------------
B|-----------------------------------------------
G|-----------------------------------------------
D|--5-----3--------------------------------------
A|--5-----3--------------------------------------
D|--5-----3--------------------------------------

E|-----------------------------------------------
B|-----------------------------------------------
G|-----------------------------------------------
D|--1-----3--------------------------------------
A|--1-----3--------------------------------------
D|--1-----3--------------------------------------

E|-----------------------------------------------
B|-----------------------------------------------
G|-----------------------------------------------
D|--5-----6--------------------------------------
A|--5-----6--------------------------------------
D|--5-----6--------------------------------------

THIRD VERSE

E|-----------------------------------------------
B|-----------------------------------------------
G|---------------------------------------1-h-0---
D|------1-------1------------3--------1----------
A|---3-------3------3----1--------3--------------
D|-----------------------------------------------

E|-----------------------------------------------
B|-----------------------------------------------
G|-----------------------------------------------
D|------1-------1------------3-------------------
A|---3-------3------3----1-----------------------
D|-----------------------------------------------

E|-----------------------------------------------
B|-----------------------------------------------
G|---------------------------------------1-h-0---
D|------1-------1------------3--------1----------
A|---3-------3------3----1--------3--------------
D|-----------------------------------------------

E|-----------------------------------------------
B|-----------------------------------------------
G|---------------------------------------1-h-0---
D|------1-------1------------3--------1----------
A|---3-------3------3----1--------3--------------
D|-----------------------------------------------

E|-----------------------------------------------
B|-----------------------------------------------
G|---------------------------------------1-h-0---
D|------1-------1------------3--------1----------
A|---3-------3------3----1--------3--------------
D|-----------------------------------------------

E|-----------------------------------------------
B|-----------------------------------------------
G|---0----0--------1----1------------------------
D|-1----1----1---3----3----3--1------------------
A|-----------------------------------------------
D|-----------------------------------------------

Third Chorus

E|-----------------------------------------------
B|-----------------------------------------------
G|-----------------------------------------------
D|--10-----6-------------------------------------
A|--10-----6-------------------------------------
D|--10-----6-------------------------------------


E|-----------------------------------------------
B|-----------------------------------------------
G|-----------------------------------------------
D|--5-----3--------------------------------------
A|--5-----3--------------------------------------
D|--5-----3--------------------------------------

E|-----------------------------------------------
B|-----------------------------------------------
G|-----------------------------------------------
D|--1-----3--------------------------------------
A|--1-----3--------------------------------------
D|--1-----3--------------------------------------

E|-----------------------------------------------
B|-----------------------------------------------
G|-----------------------------------------------
D|--5-----6--------------------------------------
A|--5-----6--------------------------------------
D|--5-----6--------------------------------------

3:41 ("Die Liebe ist ein wilde Tier ...")

E|-----------------------------------------------
B|-----------------------------------------------
G|-----------------------------------------------
D|--10-----6-------------------------------------
A|--10-----6-------------------------------------
D|--10-----6-------------------------------------


E|-----------------------------------------------
B|-----------------------------------------------
G|-----------------------------------------------
D|--5-----3--------------------------------------
A|--5-----3--------------------------------------
D|--5-----3--------------------------------------

E|-----------------------------------------------
B|-----------------------------------------------
G|-----------------------------------------------
D|--1-----3--------------------------------------
A|--1-----3--------------------------------------
D|--1-----3--------------------------------------

E|-----------------------------------------------
B|-----------------------------------------------
G|-----------------------------------------------
D|--5-----6--------------------------------------
A|--5-----6--------------------------------------
D|--5-----6--------------------------------------


SOLO! 4:00

E|------------------------------------------------
B|------------------------------------------------
G|--16(17)----------------------------------------
D|------------------------------------------------
A|----------18-17-15----17~(18)--17~--------------
D|------------------------------------------------

E|------------------------------------------------
B|------------------------------------------------
G|--16(17)----------------------------------------
D|------------------------------------------------
A|----------18-17-15---17(18)-17~----------------
D|------------------------------------------------

E|------------------------------------------------
B|-----------------------------15~----------------
G|--16(17)-------------16(17~)-----17~------------
D|------------------------------------------------
A|----------18-17-15------------------------------
D|------------------------------------------------

E|---------------15~--16--15~---------------------
B|-15~-16---15~-----------------------------------
G|------------------------------------------------
D|------------------------------------------------
A|------------------------------------------------
D|------------------------------------------------


Chorus

E|-----------------------------------------------
B|-----------------------------------------------
G|-----------------------------------------------
D|--10-----6-------------------------------------
A|--10-----6-------------------------------------
D|--10-----6-------------------------------------


E|-----------------------------------------------
B|-----------------------------------------------
G|-----------------------------------------------
D|--5-----3--------------------------------------
A|--5-----3--------------------------------------
D|--5-----3--------------------------------------

E|-----------------------------------------------
B|-----------------------------------------------
G|-----------------------------------------------
D|--1-----3--------------------------------------
A|--1-----3--------------------------------------
D|--1-----3--------------------------------------

E|-----------------------------------------------
B|-----------------------------------------------
G|-----------------------------------------------
D|--5-----6--------------------------------------
A|--5-----6--------------------------------------
D|--5-----6--------------------------------------

RIFF ("Bitte bitte geb mir Gift...")



E|-----------------------------------------------
B|-----------------------------------------------
G|-----------------------------------------------
D|--10--10--10--10----9(10)-----9(10)------------
A|--10--10--10--10----9(10)-----9(10)------------
D|--10--10--10--10----9(10)-----9(10)------------

E|-----------------------------------------------
B|-----------------------------------------------
G|-----------------------------------------------
D|--10--10--10--10----9(10)-----9(10)------------
A|--10--10--10--10----9(10)-----9(10)------------
D|--10--10--10--10----9(10)-----9(10)------------

E|-----------------------------------------------
B|-----------------------------------------------
G|-----------------------------------------------
D|--10--10--10--10----9(10)------10--------------
A|--10--10--10--10----9(10)------10--------------

Other versions of Amour

AmourChords
Amour (Ver. 3)Chords
AmourTabs
Amour (Ver. 2)Tabs

Almost there ...

Sign in to get your own page with links to favourite songs and more. You are just one click away...

Login with Facebook Login with Google