Log in

One click and you are in

Login with Facebook Login with Google

Why sign up and log in

Guitar Tabs Explorer
Rage Against The Machine bass tabs for Killing in the name

Killing In The Name bass tab by Rage Against The Machine

Rage Against The Machine bass tabs for Killing in the name

Bass tabs

Song Title: Killing in the name
----------------------------------------------

Keep an eye on the distance between the numbers to set yourself at the
correct pace/beat.

***INTRO***
G
|------------------|------------------------------------------------------------
D
|------------------|-----------------------------------------------------------.
A
|------------------|------8-8-8-----8-8-8-----8-8-8-----8-8-8-----8-8-8----8-8-8
E
|-0----0----0----0-|-0-0-0-----0-0-0-----0-0-0-----0-0-0-----0-0-0-----0-0-0--.
°°°VERSE°°°
G |--------------------------------...
D |------5-6-------------5-6-------...
A |--5-7----7--------5-7----7------...
E |-0--------0/3-2--0--------0/3-2-...

°°°Variation to the VERSE°°°
G |----------------6-7-8-9--
D |------5-6--7-8-9---------
A |--5-7--------------------
E |-0-----------------------


***BRIDGE("killing in the name of...")***
G |-----6----5----4--------------6----5----4-----------
D |----------------------------------------------------
A |--5-7--5-7--5-7------------5-7--5-7--5-7--55555555--
E |-0----0----0-----0/3/3-2--0----0----0---------------

   (Repeat)            (Repeat)
G ||-------------||.........||------------------------||...
D ||*-----------*||.........||*----------------------*||...
A ||*--7-7-x-7--*||.........||*--77--7--7------5-----*||...
E ||-------------||.........||-------------3-5--------||...
   now you do what... those who died..


>>>OUTRO<<<
G |-------------------------------|-          ...
D |-------------------------------|-then like     ...
A |--7777777777777777-----8-8-8---|-"those who died..."...
E |------------------0-0-0--------|-          ...


The symbols / and \ mean to slide(up or down).


Originally Submitted by: Massimo Piacentini (gf.piacentini@selta.inet.it)
/// FIXED by Simon Pure

Almost there ...

Sign in to get your own page with links to favourite songs and more. You are just one click away...

Login with Facebook Login with Google