Log in

One click and you are in

Login with Facebook Login with Google

Why sign up and log in

Guitar Tabs Explorer
Pinhead Gunpowder bass tabs for On the ave

Bass tabs

Intro:
G |-----------------|-----------------|-----------------|-----------------|
D |------------5----|-----------------|---5-----7-------|----5-----------5|
A |--5--------------|-------0------5--|---------------5-|----------5-0----|
E |-----------------|-----------------|-----------------|-----------------|
  We chased each other wet and soggy...
Verse 1:
G |-----------------|-----------------|-----------------|-----------------|
D |-----------------|----5-55-7-77----|-----------------|---5-55----------|
A |----5-55-5-55----|-----------------|----5-55-5-55----|--------0-00-----|
E |-----------------|-----------------|-----------------|-----------------|
  At the reservoir...         On razor wire...


Verse 1 (cont):

G |-----------------|-----------------|-----------------|-----------------|
D |-----------------|----5-55-7-77----|-----------------|-----------------|
A |----5-55-5-55----|-----------------|----5-55-5-55----|---0-00-0-00-----|
E |-----------------|-----------------|-----------------|-----------------|
  I cut my thumb...            Climb into...


Verse 2:
G |-----------------|-----------------|-----------------|-----------------|
D |-----------------|----5-55-7-77----|-----------------|---5-55----------|
A |----5-55-5-55----|-----------------|----5-55-5-55----|--------0-00-----|
E |-----------------|-----------------|-----------------|-----------------|
  What a mess...             In the shelter...


Verse 2 (cont):

G |-----------------|-----------------|-----------------|-----------------|
D |-----------------|----5-55-7-77----|-----------------|-----------------|
A |----5-55-5-55----|-----------------|----5-55-5-55----|---0-00-0-00-----|
E |-----------------|-----------------|-----------------|-----------------|
  Street, Creek...           With us sitting...

Pre Chorus:

G |-----------------|-----------------|
D |-----------------|-----------------|
A |---5-5-5-5-------|--0000000--------|
E |-----------------|-----------------|


Chorus:

G |-----------------|-----------------|-----------------|-----------------|
D |-----------------|---5-55-7-77-----|-----------------|----5-55---------|
A |---5-555555------|-----------------|----5-555555-----|---------0-00----|
E |-----------------|-----------------|-----------------|-----------------|
  Time rolls over me...        Time rushes over me...

G |-----------------|-----------------|-----------------|-----------------|
D |-----------------|----5-55-7-77----|----5-55-555-----|-----7-77-777----|
A |----5-55-5-55----|-----------------|-----------------|-----------------|
E |-----------------|-----------------|-----------------|-----------------|
  Why try to run...         Passes you by...


Verse 3:

G |-----------------|-----------------|-----------------|-----------------|
D |-----------------|----5-55-7-77----|-----------------|---5-55----------|
A |----5-55-5-55----|-----------------|----5-55-5-55----|--------0-00-----|
E |-----------------|-----------------|-----------------|-----------------|
  I had some friends...         They had a room...


Verse 3 (cont):

G |-----------------|-----------------|-----------------|-----------------|
D |-----------------|----5-55-7-77----|----5-55-555-----|-----------------|
A |----5-55-5-55----|-----------------|-----------------|----0-00-000-----|
E |-----------------|-----------------|-----------------|-----------------|

Almost there ...

Sign in to get your own page with links to favourite songs and more. You are just one click away...

Login with Facebook Login with Google