Log in

One click and you are in

Login with Facebook Login with Google

Why sign up and log in

Guitar Tabs Explorer
Johann Pachelbel chords for Canon in d ukulele

Canon In D Ukulele chords - Johann Pachelbel

Johann Pachelbel chords for Canon in d ukulele

Guitar chords

A|-9-------7-------5-------4--------|-2-------0-------2-------4--------|
E|----------------------------------|----------------------------------|
C|----------------------------------|----------------------------------|
G|----------------------------------|----------------------------------|

A|-5-------4-------2-------0--------|----------------------------------|
E|----------------------------------|-3-------2-------3-------0--------|
C|----------------------------------|----------------------------------|
G|----------------------------------|----------------------------------|

A|---------0------------------------|-----2-------0-------2---0--------|
E|-----2-------3---2-------2---0----|-----------------3-----------3----|
C|-2-------------------2------------|-2-------2------------------------|
G|----------------------------------|----------------------------------|

A|-------------4---5---9---12--0----|-2-------0-----------5---5-----4--|
E|-2-------0------------------------|-----3-------2--------------------|
C|-----2----------------------------|-----------------2----------------|
G|----------------------------------|----------------------------------|

A|-5-4-5-----0-------5-4-2-4-9-12-14|10-9-7-10-9-7-5-4-2-0-------------|
E|-------------0-2------------------|----------------------3-2-0-3-2-0-|
C|-------2-1-------2----------------|----------------------------------|
G|----------------------------------|----------------------------------|

A|---------0---0-----2-0---0--------|---2-2-4-5-4-2-0-------2-0-2-0----|
E|---0-2-3---0---3-2-----3---3-2-0--|-----------------3-2-0---------3--|
C|-2--------------------------------|-2--------------------------------|
G|----------------------------------|----------------------------------|

A|-----9---7-----------5---9--------|-14------12-----14-----16---------|
E|-2--------------------------------|----------------------------------|
C|----------------------------------|----------------------------------|
G|----------------------------------|----------------------------------|

A|-17--5---4-----------2---5--------|-5-----------5---5---10--7---12---|
E|----------------------------------|----------------------------------|
C|----------------------------------|----------------------------------|
G|----------------------------------|----------------------------------|

*The rest is written in half speed due to formatting issues*

A|-12--9-10-12--9-10-12-0-2-4-5-7-9-10-9--5-7-9------0-2-0---0-----0|
E|-----------------------------------------------2-3-------3---2-3--|
C|------------------------------------------------------------------|
G|------------------------------------------------------------------|

A|-----2-0---------------------0-2-----2-0-2---4-5-0-2-4-5-7-9-10-12|
E|-3-------3---2-0-2-0---0-2-3-----3--------------------------------|
C|---------------------2--------------------------------------------|
G|------------------------------------------------------------------|

A|-9---5-7-9---7-5-7-4-5-7-9-7-5-4-5---2-4-5-----------------5-4-5--|
E|-----------------------------------------------0-2-3-2-0-2--------|
C|---------------------------------------------2--------------------|
G|------------------------------------------------------------------|
                                   D
A|-2---5-4-2---0---0-------0-2-4-5-2---5-4-5---4-2-4-5-7-5-4-5-2-4--|-5-|
E|---------------3---3-2-3------------------------------------------|-2-|
C|------------------------------------------------------------------|-2-|
G|------------------------------------------------------------------|-2-|

Almost there ...

Sign in to get your own page with links to favourite songs and more. You are just one click away...

Login with Facebook Login with Google