Log in

One click and you are in

Login with Facebook Login with Google

Why sign up and log in

Guitar Tabs Explorer
Mike Oldfield tabs for Tubular bells

Guitar tabs

By Code Red Virus
This is a really simple way to play Mike Oldfield's Tubular Bells

I saw this tab somewhere and made some changes of my own to make it sound closer to the song

Standard tuning

h=Hammer on
^=Bend
e:-0-5-0-7-3-5-0-8-0-10-0-7-8--0-5-0-7-3-5-0-8-0-10-0-7-8---------------------------
b:-------------------------------------------------------0-5-0-7-3-5-0-8-0-10-0-7-8-
G:----------------------------------------------------------------------------------
D:----------------------------------------------------------------------------------
A:----------------------------------------------------------------------------------
E:----------------------------------------------------------------------------------

e:-----------------------------5-7-3h5-8-10-7h8------------------5-7-3h5-8-10-7h8^
b:--0-5-0-7-3-5-0-8-0-10-0-7-8------------------5-7-3h5-8-10-7h8------------------
G:--------------------------------------------------------------------------------
D:--------------------------------------------------------------------------------
A:--------------------------------------------------------------------------------
E:--------------------------------------------------------------------------------
Starts over from the beginning from there

This is the main riff of the song i am actually not sure if this is the entire song

Other versions of Tubular Bells

Tubular bells finaleTabs
Tubular bells introTabs

Almost there ...

Sign in to get your own page with links to favourite songs and more. You are just one click away...

Login with Facebook Login with Google