Log in

One click and you are in

Login with Facebook Login with Google

Why sign up and log in

Guitar Tabs Explorer
Mike Oldfield tabs for Red dawn

Guitar tabs

Mike Oldfield - RED DAWN (Tubular Bells 2)
 ____________________________________________
 tabbed by Zolo Kallay (zolojr@hotmail.com)
 get more songs at http://zolo.host.sk/guitar
<intro>
|--------------------------|
|--------------------------|
|-0-0----------------------|
|------4--2--0-------------|
|---------------3--2--0--3-|
|--------------------------|

2x<part 1>
  A chord diagramE minorEm              A chord diagramA minorAm              A chord diagramB7B7              A chord diagramE minorEm
|---------3---2---2---0-------------------------------------------|
|-0---------0---0---------1-----------0---0---1---0-------0-----0-|
|-------0---------------------2---2-----2---------------0-----0---|
|-----2-------------2---2---2---0---1-------1---1-----2-----2-----|
|---2-------------0---------------------------------2-------------|
|-0-----------------------------------------------0---------------|

  A chord diagramA minorAm              A chord diagramB7B7              A chord diagramC majorC               A chord diagramAsus2Asus2   A chord diagramB7B7    1st  2nd
|-0-----0-5---3---2-------0---2---3---0---0-------0-------2-----|----|2-|
|-----1---------------0-----------------------0-------0-------0-|0h1-|--|
|-----------5---2---2---2---2---0---0---0-----0-----2---2---2---|----|--|
|---2---------------------------------------2---0---------------|----|--|
|-0---------------2---------------3-----------------------------|----|--|
|---------------------------------------------------------------|----|--|

<part 2>
  A chord diagramA minorAm              A chord diagramD MajorD               A chord diagramB minorBm              A chord diagramC# minorC#m
|-----0---5---3---2-------0---2---------2-7---5---4-------4-------|
|-1-------------------0---------------0-----0---------5-------5---|
|-----------5---2---2---2---2---0-------------------6-----------6-|
|---2---2---------------------------0-----------0-------6---6-----|
|---------------------------------2-------------------------------|
|-----------------------------------------------------------------|

  A chord diagramC minorCm
|-3-------3-------------------------------------------------------|
|-----4-------4---------------------------------------------------|
|---5---5-------5-------------7-7-------------7-7-7-7-7-7-7-7-7-7-|
|-----------5-------------6-6-------------6-6-----6-6-6-6-6-6-6-6-|
|---------------------5-5-------------5-5---------5-5-5-5-5-5-5-5-|
|-----------------4-4-------------4-4-------------4-4-4-4-4-4-4-4-|

<outro>
4x        4x
|---------|---------|
|---------|---------|
|---------|---------|
|---------|---------|
|-7-5-7-2-|-9-7-9-4-|
|-5-3-5-0-|-7-5-7-2-|


 Enjoy!

Almost there ...

Sign in to get your own page with links to favourite songs and more. You are just one click away...

Login with Facebook Login with Google