Search tabs and chords

Browse bands and artists

A B C D E F G H I J K L M N O P Q R S T U V W X Y Z #

Log in

[ Register here | Forgot password ]

Guitar Tabs Explorer
Print

On Horseback tab by Mike Oldfield

Guitar tabs

On Horseback by Mike Oldfield
from the album Ommadawn
Tabbed by Malc Brookes (malc@malbro.demon.co.uk)

Tuning:
Standard, EADGBE, with capo on 7th fret.

Intro
E|-----|
B|-----|
G|-----|
D|--0--|
A|-----|
E|-----|


    1 . 2 . 3 . 4 .    1 . 2 . 3 . 4 .
E|--------------0---|------2-----------|
B|------0---1-------|--3-------0-----3-|
G|--0---------------|------------------|
D|------0-------0---|------0-------0---|
A|------------------|------------------|
E|--3-------3-------|--3-------3-------|


    1 . 2 . 3 . 4 .    1 . 2 . 3 . 4 .
E|------0-----------|------------------|
B|--1-----------1---|--0h1-1h3---------|
G|----------2-------|----------0---0h2-|
D|------0-------0---|------0-----------|
A|------------------|------------------|
E|--3-------3-------|--3-------3---2---|

    1 . 2 . 3 . 4 .    1 . 2 . 3 . 4 .
E|--------------0---|----0-0h2---------|
B|------0h1-1h3-----|--3-------0-----3-|
G|--0---------------|------------------|
D|------2-------2---|------2-------2---|
A|------------------|------------------|
E|--0-------0-------|--0-------0-------|


    1 . 2 . 3 . 4 .    1 . 2 . 3 . 4 .
E|------0-----------|------------------|
B|--1---------0-0h1-|--0---------------|
G|----------2-------|----------2-----0-|
D|------2-------2---|------0-------0---|
A|------------------|------------------|
E|--0-------0-------|--3-------2-------|


Verse (played same as intro):
Chorus
    1 . 2 . 3 . 4 .    1 . 2 . 3 . 4 .
E|------------------|------------0-0h2-|
B|----------0---1---|--3-------3-------|
G|--0---0h2---------|----2-2-------2---|
D|------0-------0---|--0-------0-------|
A|------------------|------------------|
E|--3-------3-------|------------------|
  Hey, and away we     go,   Through the
    1 . 2 . 3 . 4 .    1 . 2 . 3 . 4 .
E|--0---------------|------------------|
B|------------------|--0---0-0-0h1-3---|
G|------0-0-0---0h2-|------------------|
D|------2-----------|------0-------0---|
A|------------------|------------------|
E|--0-------0---0h2-|--3-------3-------|

    1 . 2 . 3 . 4 .    1 . 2 . 3 . 4 .
E|------0-------0---|------2-----------|
B|--1---------------|--3-------0-----3-|
G|----------0-------|------------------|
D|------2-------0---|------0-------0---|
A|--3---------------|------------------|
E|----------3-------|--3-------3-------|


    1 . 2 . 3 . 4 .    1 . 2 . 3 . 4 .
E|------0-----------|------------------|
B|--1-----------0h1-|--0h1-1h3---------|
G|----------2-------|----------0---0h2-|
D|------0-------0---|------0-----------|
A|------------------|------------------|
E|--3-------3-------|--3-------3---2---|

    1 . 2 . 3 . 4 .    1 . 2 . 3 . 4 .
E|--------------0---|----0-0h2---------|
B|------0h1-1h3-----|--3-------0-----3-|
G|--0---------------|------------------|
D|------2-------2---|------2-------2---|
A|------------------|------------------|
E|--0-------0-------|--0-------0-------|


    1 . 2 . 3 . 4 .    1 . 2 . 3 . 4 .
E|------0-----------|------------------|
B|--1---------0-0h1-|--0---------------|
G|----------2-------|----------2-----0-|
D|------2-------2---|------0-------0---|
A|------------------|------------------|
E|--0-------0-------|--3-------2-------|


Verse
Verse
Chorus
Verse
Verse
Chorus
Instrumental (as intro):


Verse
Chorus - play twice and finish second time with:

    1 . 2 . 3 . 4 .    1 . 2 . 3 . 4 .
E|------0-----------|------------------|-----|
B|--1---------0-0h1-|--0---------------|-----|
G|----------2-------|----------2-------|--0--|
D|------2-------2---|------0-------0---|-----|
A|------------------|------------------|-----|
E|--0-------0-------|--3-------2-------|--3--|
                I'd rather be on horseback.



To reply via email remove the ox from my address.

Comments