Log in

One click and you are in

Login with Facebook Login with Google

Why sign up and log in

Guitar Tabs Explorer
Mike Oldfield tabs for Arrival

Guitar tabs

BAND - MIKE OLDFIELD
SONG - ARRIVAL
FROM - QE2


h - Hammer On
p - Pull Off
s - Slide
00:07
SECTION 1
[--------------|-----------|--------------------------|---------------------]
[--------------|----h--h---|---h--h---19---p--p-------|---------------------]
[-----18-20-22-|--18-20-22-|-18-20-22----22-20-18--20-|-18---s-----------18-]
[--18----------|-----------|--------------------------|----22\20-18-20-22---]
[--------------|-----------|--------------------------|---------------------]
[--------------|-----------|--------------------------|---------------------]


00:16
SECTION 2   s            h                                     h  p
[----h----18\21--21--|-21-23-21-18-20--|--------18--|--18-20-18-20-18---s---]
[--18--21------------|-----------------|---s--------|-----------------21\18-]
[--------------------|-----------------|-20\18------|-----------------------]
[--------------------|-----------------|------------|-----------------------]
[--------------------|-----------------|------------|-----------------------]
[--------------------|-----------------|------------|-----------------------]


00:24
SECTION 3
[----------------|-----------------------|------------------------]
[----h-----------|-----19----p--p--------|------------------------]
[--18-20-22--22--|--22-----22-20-18--20--|--18---s------------18--]
[----------------|-----------------------|-----22\20-18-20-22-----]
[----------------|-----------------------|------------------------]
[----------------|-----------------------|------------------------]

00:41
SECTION 4
[---h-----------------------]
[-18-21-18----p-------------]
[-----------20-18-22-18-----]
[-----------------------18--]
[---------------------------]
[---------------------------]


00:51
REPEAT SECTION 2

00:59
REPEAT SECTION 3

01:16
REPEAT SECTION 4


01:24
SECTION 5
[-----h------h-------]
[---18-21--18-21-----]
[----------------18--]
[--------------------]
[--------------------]
[--------------------]


01:25
REPEAT SECTION 2

01:33
REPEAT SECTION 3

01:44
REPEAT SECTION 3

01:51
REPEAT SECTION 4

01:53
REPEAT SECTION 3

01:59
REPEAT SECTION 5

02:00
REPEAT SECTION 2

02:08
REPEAT SECTION 3

02:16
REPEAT SECTION 2

02:24
REPEAT SECTION 3

02:33
REPEAT SECTION 3

Almost there ...

Sign in to get your own page with links to favourite songs and more. You are just one click away...

Login with Facebook Login with Google