Search tabs and chords

Search for song, artist or band

Log in

One click and you are in

Login with Facebook Login with Google

Why sign up and log in

Guitar Tabs Explorer
Ocean Colour Scene bass tabs for The day we caught the train

The Day We Caught The Train bass tab by Ocean Colour Scene

Ocean Colour Scene bass tabs for The day we caught the train

Bass tabs

Tuning: Standard (E A D G)

Difficulty: Intermediate

Verse:
G|---------------|---------------|---------------|---------------|
D|---------------|---------------|---------------|3-3-3-3-3-3-3-3|
A|---------------|---------------|---------------|---------------|
E|---------------|---------------|---------------|---------------|
  1 + 2 + 3 + 4 + 1 + 2 + 3 + 4 + 1 + 2 + 3 + 4 + 1 + 2 + 3 + 4 +

G|---------------|---------------|---------------|---------------|
D|2-2-2-2-2-2-2--|---------------|---------------|----4----------|
A|---------------|---------------|5-5-5-5-3-3-3-3|2-2-----2-2----|
E|-------------02|3-3-3-3-3-3-3-3|---------------|---------------|
  1 + 2 + 3 + 4e+ 1 + 2 + 3 + 4 + 1 + 2 + 3 + 4 + 1 + 2 + 3 + 4 +

G|----9-------9--|---------------|----9----------|---------14---14-14-14--|
D|---------------|----7----------|---------------|----7--14---------------|
A|7-------7-7----|---------------|7------77-7---7|------------------------|
E|---------------|5------55-5-557|------------57-|5-----------------------|
  1 + 2 + 3 + 4 + 1 + 2 +a3 + 4e+ 1 + 2 +a3 + 4e+ 1 + 2 +  3    +  a  4  +

Pre-Chorus:
G|---------------|---------------|---------------|---------------|
D|------------8--|----9----------|---------------|---------------|
A|5---5-\---7----|--7---7-4---4--|7\-------------|---------------|
E|--------6------|7--------------|----0---0-0-002|3-3-3-3-3-3-302|
  1 + 2 + 3 + 4 + 1 + 2 + 3 + 4 + 1 + 2 + 3 + 4e+ 1 + 2 + 3 + 4e+

G|---------------|---------------|
D|---------------|---------------|
A|---------------|--------444-444|
E|3-3-3-3-3-3-302|5---5--5-------|
  1 + 2 + 3 + 4 + 1 + 2 +a3e+ 4e+

Chorus:
G|---------------|----------------|---------------|---------------|
D|---------------|----5-4-2------2|---------------|----5-4-2-2----|
A|5--575---------|----------0-2h4-|5--575---------|---------------|
E|------7-5-5-0-2|3-3-------------|------7-5-5-0-2|3-3------------|
  1 +a2e+ 3 + 4 + 1 + 2 + 3 + 4 e+ 1 + 2 + 3 + 4 + 1 + 2 + 3 + 4 +

Verse:
G|---------------|---/7-------7\-|---------------|---------------|
D|---------------|---------------|------------5--|3-3-3-3-3-3-3-3|
A|---------------|5---------5----|----5----------|---------------|
E|---------------|---------------|3------03-3----|---------------|
  1 + 2 + 3 + 4 + 1 + 2 + 3 + 4 + 1 + 2 + 3 + 4 + 1 + 2 + 3 + 4 +

G|---------------|---------------|---------------|---------------|
D|2-2-2-20202-2--|--------5-2----|---------------|----4----------|
A|---------------|----5-5-----5-3|5-5-5-0-3-3-3-0|2-2-----2-2----|
E|-------------02|3-3------------|---------------|------------2--|
  1 + 2 + 3 + 4 + 1 + 2 + 3 + 4 + 1 + 2 + 3 + 4 + 1 + 2 + 3 + 4 +

G|----9-------9\-|---------------|----9----------|---------14-14-14-14-14\-|
D|---------------|----7----------|---------------|----7--14----------------|
A|7------77-7----|---------------|7------77-7---7|-------------------------|
E|---------------|5------05-5-7-9|------------57-|5------------------------|
  1 + 2 + 3 + 4 + 1 + 2 + 3 + 4 + 1 + 2 + 3 + 4 + 1 + 2 +  3  e  +  a  4  +

Pre-Chorus:
G|---------------|----------------|---------------|----------------|
D|------------8--|----9h11--------|---------------|----------------|
A|5---5-\---7----|---------4---4--|7\-------------|----------------|
E|--------6------|7---------------|----0---0-0-002|3-3-3-3-3-3-3022|
  1 + 2 + 3 + 4 + 1 + 2  + 3 + 4 + 1 + 2 + 3 + 4e+ 1 + 2 + 3 + 4e+a

G|---------------|---------------|
D|---------------|---------------|
A|---------------|--------444-444|
E|3-3-3-3-3-3-302|5---5--5-------|
  1 + 2 + 3 + 4 + 1 + 2 +a3e+ 4e+

Chorus:
G|---------------|----------------|---------------|---------------|
D|---------------|----5-4-2------2|---------------|----5-4-2-2----|
A|5--575---------|----------0-2h4-|5--575---------|---------------|
E|------7-5-5-0-2|3-3-------------|------7-5-5-0-2|3-3------------|
  1 +a2e+ 3 + 4 + 1 + 2 + 3 + 4 e+ 1 + 2 + 3 + 4 + 1 + 2 + 3 + 4 +

Bridge:
G|---------------|---------------|---------------|------------7h9-7\-|
D|---------------|7-7-5-5-4-4----|---------------|0---0--07h9--------|
A|---------------|------------7-7|--------4-4-7--|-------------------|
E|---------------|---------------|5-5-7-7--------|-------------------|
  1 + 2 + 3 + 4 + 1 + 2 + 3 + 4 + 1 + 2 + 3 + 4 + 1 + 2 +a3 e + a 4 +

G|---------------|---------------|---------------|---------------|
D|7-7-5-5-4-4----|---------------|---------------|------5--------|
A|------------7-7|--------4444444|5---5--5-------|--------7-----4|
E|---------------|5-5-7-7--------|--------5-5-5--|3---3-----5-7--|
  1 + 2 + 3 + 4 + 1 + 2 + 3 + 4 + 1 + 2 + 3 + 4 + 1 + 2 + 3 + 4 +

Chorus:
G|---------------|---------------|---------------|---------------|
D|---------------|----5-4-2------|---------------|----5-4-2------|
A|5---5--5-------|----------0-2-4|5---5--5-------|----------0-2-4|
E|--------5-5-5--|3--------------|--------5-5-5--|3--------------|
  1 + 2 + 3 + 4 + 1 + 2 + 3 + 4 + 1 + 2 + 3 + 4 + 1 + 2 + 3 + 4 +

G|---------------|---------------|---------------|----------------|
D|---------------|----5-4-2------|---------------|----5-4-2------2|
A|5---5--5-------|----------0-2-4|5--575---------|----------0-2h4-|
E|--------5-5-5--|3--------------|------7-5-5-0-2|3-3-------------|
  1 + 2 + 3 + 4 + 1 + 2 + 3 + 4 + 1 + 2 + 3 + 4 + 1 + 2 + 3 + 4 e+

G|---------------|----------------|---------------|----------------|
D|---------------|----5-4-2------2|---------------|----5-4-2------2| repeat until
A|5--575---------|----------0-2h4-|5--575---------|----------0-2h4-| fade out
E|------7-5-5-0-2|3-3-------------|------7-5-5-0-2|3-3-------------|
  1 +a2e+ 3 + 4 + 1 + 2 + 3 + 4 e+ 1 + 2 + 3 + 4 + 1 + 2 + 3 + 4 e+


***********************************

 /   Slide up
 \   Slide down
 h   Hammer on

***********************************

Almost there ...

Sign in to get your own page with links to favourite songs and more. You are just one click away...

Login with Facebook Login with Google