Log in

One click and you are in

Login with Facebook Login with Google

Why sign up and log in

Guitar Tabs Explorer
Oasis guitar chords for Wonderwall

Guitar chords

I thought id improve the rest cause i tried them to see if they were any =
better and the didn't work so here's the proper one. see what you think, =
keep trying it with the song if you can otherwise play at a medium =
speed.
if you've got a capo then put it along the second thret and play the =
same.
e.g instead of 3 use 5 and instead of 2 use 4 etc. *REMEMBER* ONLY WITH =
A chord diagramA augmentedA CAPO.

tunning Low EADGBE

play al the way through from start untill.....
E--3--x--3--x--3--3-----3--3--3----3--3--3-----3--3--3--3--3----3--3---
B--3--x--3--x--3--3-----3--3--3----3--3--3-----3--3--3--3--3----3--3---
G--0--x--0--x--0--0-----0--0--0----2--2--2-----0--0--0--0--0----0--0---
D--2--x--2--x--2--2-----0--0--0----0--0--0-----2--2--2--2--2----0--0---
A--2--x--2--x--2--2-----0--0--0----0--0--0-----0--0--0--0--0----0--0---
E--0--x--0--x--0--0-----3--3--3----0--0--0-----0--0--0--0--0----3--3---

.... there are many things that i would like to say to you....

E--0--x--0--x--0--2--2--2--2--2---0--x--0--x--0---     --0--=20
B--1--x--1--x--1--3--3--3--3--3---3--x--2--x--1---     --3--
G--0--x--0--x--0--2--2--2--2--2---0--x--0--x--0---     --0--     {X20}
D--2--x--2--x--2--0--0--0--0--0---0--x--0--x--0---     --0--
A--3--x--3--x--3--0--0--0--0--0---0--x--0--x--0---     --0--
E--0--x--0--x--0--0--0--0--0--0---3--x--2--x--1---     --0--


At the end do this

E--------------11-----
B--8--7--8--------8--
G-----------------------            {X4 (On last one hold last 8)}
D-----------------------
A-----------------------
E-----------------------

Wonderwall chords

Oasis guitar chords for Wonderwall Wonderwall, the most requested and played song by Oasis. Released as a single in 1995 is soon topped the hit-lists all over the world. The band plays is different on stage, sometimes with an electric guitar and sometimes acoustic. With this in mind, feel free to play these Oasis Wonderwall guitar chords in your own style.

If you hear it on the radio and it is quite not as you are used to hear it its probably a cover version. "Wonderwall" has been one of the most-frequently covered pop-songs in the recent years. It has also been used in commercials and movie themes. Use these Wonderwall guitar chords to master the song.

Other versions of Wonderwall

Wonderwall (Ver. 2)Chords
Wonderwall (Ver. 3)Chords
Wonderwall acousticChords
Wonderwall and boulevard of broken dreams acousticChords
Wonderwall liveChords
Wonderwall ukuleleChords
WonderwallTabs
Wonderwall (Ver. 2)Tabs

Almost there ...

Sign in to get your own page with links to favourite songs and more. You are just one click away...

Login with Facebook Login with Google