Log in

One click and you are in

Login with Facebook Login with Google

Why sign up and log in

Guitar Tabs Explorer
Oasis bass tabs for Little by little

Bass tabs

Oasis - Little By Little
>From the album Heathen Chemistry (2002)

Tab by: Richard Beason (Rich_b@hotmail.com)
Verse
G|-----------------|------6--7--9--9-||
D|-----------------|--7--------------||
A|-7---7---7--7--7-|-----------------||
E|-----------------|-----------------||


Bridge
G|-----------------|-0---0---0--0----|-----------------|-2---2---2-2-2-2-|
D|-0---0---0--0--4-|---------------4-|-2---2---2--2--2-|-----------------|
A|-----------------|-----------------|-----------------|-----------------|
E|-----------------|-----------------|-----------------|-----------------|


Chorus
G|--0------0---0---|-----------------|--2------2---2---|-----------------||
D|-----------------|--0------0---0---|-----------------|--2---2---4---4--||
A|-----------------|-----------------|-----------------|-----------------||
E|-----------------|-----------------|-----------------|-----------------||

G|--0------0---0---|-----------------|--5------5---5---|--4------4---4---|
D|-----------------|--0------0---0---|-----------------|-----------------|
A|-----------------|-----------------|-----------------|-----------------|
E|-----------------|-----------------|-----------------|-----------------|

G|-2---------------|
D|-----------------|
A|-----------------|
E|-----------------|

Solo
G|--2----2-2---2---| |--0--0-----------||
D|-----------------|x|----------0--0---||
A|-----------------|3|-----------------||
E|-----------------| |-----------------||

G|-----------------| |---2--2----0--0--|-----------------|-----------------|
D|--0----0-0----0--|x|-----------------|--0----0-0----0--|--0----0-0----0--|
A|-----------------|3|-----------------|-----------------|-----------------|
E|-----------------| |-----------------|-----------------|-----------------|

G|--2--2---2--2--2-|
D|-----------------|
A|-----------------|
E|-----------------|


Outro
G|-----------------|-----------------||
D|-0----s------12--|-12-----s------0-||
A|-----------------|-----------------||
E|-----------------|-----------------||


_________________________________________________________________

Other versions of Little By Little

Little by little1Bass tabs

Almost there ...

Sign in to get your own page with links to favourite songs and more. You are just one click away...

Login with Facebook Login with Google