Search tabs and chords

Browse bands and artists

A B C D E F G H I J K L M N O P Q R S T U V W X Y Z #

Log in

[ Register here | Forgot password ]

Guitar Tabs Explorer
Print

Acquiesce bass tab by Oasis

Bass tabs

Intro
(0:21-0:38)
G|---------------------------------|
D|---------------------------------|   (x4)
A|---------------------------------|
E|-5-5-5-3-5-5-5-0-2-2-2-3-3-3-3-3-|

Verse
(0:39-1:09)
G|---------------------------------|
D|---------------------------------|   (x7)
A|---------------------------------|
E|-5-5-5-3-5-5-5-0-2-2-2-3-3-3-3-3-|

Bridge
(1:09-1:17)
G|-----------------------------------------------------------------|
D|-----------------------------------------------------------------|   (x1)
A|-----------------------------------------------------------------|
E|-5-5-5-0-3-3-3-0-2-2-2-0-1-1-1-0-0-0-0-0-0-0-0-0-0-0-0-0-0-0-0-0-|

Chorus 1
(1:18-1:51)
G|---------------------------------|
D|---------------------------------|   (x8)
A|---------3-3-2-------------------|
E|-1-1-1-1-------3-3-3-3-3-3-3-3-3-|

Bridge
(1:52-2:00)
G|-----------------------------------------------------------------|
D|-----------------------------------------------------------------|   (x1)
A|-----------------------------------------------------------------|
E|-5-5-5-0-3-3-3-0-2-2-2-0-1-1-1-0-0-0-0-0-0-0-0-0-0-0-0-0-0-0-0-0-|

Verse
(2:01-2:30)
G|---------------------------------|
D|---------------------------------|   (x7)
A|---------------------------------|
E|-5-5-5-3-5-5-5-0-2-2-2-3-3-3-3-3-|

Bridge
(2:31-2:38)
G|-----------------------------------------------------------------|
D|-----------------------------------------------------------------|   (x1)
A|-----------------------------------------------------------------|
E|-5-5-5-0-3-3-3-0-2-2-2-0-1-1-1-0-0-0-0-0-0-0-0-0-0-0-0-0-0-0-0-0-|

Chorus 2
(2:39-3:58)
G|---------------------------------|
D|---------------------------------|   (x19)
A|---------3-3-2-------------------|
E|-1-1-1-1-------3-3-3-3-3-3-3-3-3-|

Outro
(3:59-4:15)
G|--------------------------------------------------------------------|
D|--------------------------------------------------------------------|   (x1)
A|-8---8-8-8-8-8-8-7---7-7-7-7-7-7-6---6-6-6-6-6-6-3---3-3-3-3-3-2----|

Comments