Guitar Tabs Explorer
Nickelback bass tabs for Woke up this morning

Woke Up This Morning bass tab


Be the first to rate

Woke Up This Morning bass tab by Nickelback

Bass tabs with lyrics

Print
Song - Woke Up This Morning
Album - Silver Side Up

lowest to highest: C, E, A, D


(0:02) Intro
D|--------------------------------------------------------------------------|
A|--------------------------------------------------------------------------|
E|5-5--------------------------------3-3------------------------------------|
C|----------------------------------------------------------------------2-2-|

(0:09) Intro
D|----|
A|----|
E|----|
C|12\-|

Slide straight into this:
(0:11) Intro
D|--------------------------------------------------------------------------|
A|--------------------------------------------------------------------------|
E|---------------------5-------------------------3--------------------------|
C|0-0------0-0-------------0-0------0-0---------------0-0------0-0---------2|

(0:20) Intro
D|----------------|
A|----------------|
E|----5-5-5--------|
C|0-0-------2-2-2-|

(0:22) Verse "I paid my last respects this morning on an early grave..."
D|----------------------------------------------------------|
A|----------------------------------------------------------|
E|----------------------------------------------------------|
C|0-0------0-0---------------0-0------0-0---------------0-0-|

REST (0:27) "A tiny church, a tiny town and not a tear was spent"

(0:30) "Not how I wanted it... I'm hating all of this"
D|------------------------|
A|------------------------|
E|------------------------|
C|0-0--------------3/(9)-|

(0:33) Prechorus "I'm hating all of this"
D|---------------------------------------------------------------------------------------------------|
A|---------------------------------------------------------------------------------------------------|
E|---------------------------------------------------------------------------------------------------|
C|0-0------0-0--------2-2---0-0------0-0--------2-2---0-0------0-0--------2-2---0-0------0-0--/(12)-|

(0:43) Prechorus "all of this"
D|------------------------------------------------|
A|------------------------------------------------|
E|3--3--3--3--3--3--3--3--5--5--5--5--5--5--5--5--|
C|------------------------------------------------|

(0:49) Prechorus "all of this"(I'm not sure how many notes, just ride it out)
D|-----------------------------------------------------------|
A|2--2--2--2--2--2--2--2--2--2--2--2--2--2--2--2--2--2-------|
E|-----------------------------------------------------------|
C|-----------------------------------------------------------|

(0:54) Chorus "Now I know why I hide my love from you somedays..."
D|------------------------------------------------------|
A|2---2-2-4-6--(2)---2--2--2--7--7--7--5-----5--5--5--|  x 3
E|------------------------------------------------------|
C|0-----------------------------------------------------|

(1:11) Chorus "Looks like you found me... now I know why"
D|--------------------------------------------------------|
A|/-7--7--7--5-----5--5--5---7---------------------------|
E|--------------------------------------------------------|
C|---------------------------------------------14\\(0)-|

REST (1:17) "I felt like *** when I woke up this morning"

(1:19) Bridge
D|--------------------------------------------------------------------------|
A|--------------------------------------------------------------------------|
E|---------------------5-------------------------3--------------------------|
C|0-0------0-0---------------0-0------0-0---------------0-0------0-0-------2|

(1:28) Bridge
D|----------------|
A|----------------|
E|----5-5-5-------|
C|0-0-------2-2-2-|

(1:30) Verse "I've been a loser all my life, I'm not about to change..."
D|----------------------------------------------------------|
A|----------------------------------------------------------|
E|----------------------------------------------------------|
C|0-0------0-0---------------0-0------0-0---------------0-0-|

REST (1:35) "There ain't a woman on the planet who can deal with it"

(1:38) Verse "Just how I wanted it... I'm hating all of this"
D|---------------------------|
A|---------------------------|
E|---------------------------|
C|0-0-----------------12\---|

(1:41) Prechorus "I'm hating all of this"
D|---------------------------------------------------------------------------------------------------|
A|---------------------------------------------------------------------------------------------------|
E|---------------------------------------------------------------------------------------------------|
C|0-0------0-0--------2-2---0-0------0-0--------2-2---0-0------0-0--------2-2---0-0------0-0--/(12)-|


(1:52) Prechours "All of this"
D|------------------------------------------------|
A|------------------------------------------------|
E|3--3--3--3--3--3--3--3--5--5--5--5--5--5--5--5--|
C|------------------------------------------------|

(1:57) Prechours "All of this"(I'm not sure how many notes, just ride it out)
D|-----------------------------------------------------------|
A|2--2--2--2--2--2--2--2--2--2--2--2--2--2-------------------|
E|-----------------------------------------------------------|
C|-----------------------------------------------------------|

(2:02) Chorus "Now I know why I hide my love from you somedays..."
D|------------------------------------------------------|
A|2---2-2-4-6--(2)---2--2--2--7--7--7--5-----5--5--5--|  x 3
E|------------------------------------------------------|
C|0-----------------------------------------------------|

(2:19) Chorus "Looks like you found me... now I know why"
D|--------------------------------------------------------|
A|/-7--7--7--5-----5--5--5---7---------------------------|
E|--------------------------------------------------------|
C|---------------------------------------------14\\(0)-|

REST (2:25) "I felt like *** when I woke up this morning"

(2:27) Bridge
D|------------------------------------------------------------------------------------------|
A|------------------------------------------------------------------------------------------|
E|---------------------5-------------------------3----------------------------------------|
C|0-0------0-0---------------0-0------0-0---------------0-0------0-0---------2----0-0------|

(2:37) Bridge
D|----------------|
A|----------------|
E|----5-5---------|
C|0-0-----0-0-2-2-|

REST (2:38)

(2:42) Breakout
D|---------|
A|---------|
E|---------|
C|5--4--2--|

(2:44) Breakout
D|-----------------------------------------------------------------------|
A|-----------------------------------------------------------------------|
E|--------------10--7--5---------------------------------------10--5--7--|
C|0---0-1-2-3-------------0---0-1-2-3---5--4--2--0---0-1-2-3-------------|

(2:52) Breakout
D|----------------------------------------------------------------------|
A|----------------------------------------------------------------------|
E|--------------2----------------------10--5--7----------------2--------|
C|0---0-1-2-3------2--4--0---0-1-2-3-------------0---0-1-2-3------2--4--|

(3:00) Prechorus "all of this"
D|------------------------------------------------|
A|------------------------------------------------|
E|3--3--3--3--3--3--3--3--5--5--5--5--5--5--5--5--|
C|------------------------------------------------|

(3:05) Prechours "all of this"
D|-----------------------------------------------------------|
A|2--2--2--2--2--2--2--2--2--2--2--2--2--2-------------------|
E|-----------------------------------------/(9)(7)/(9)(7)-|
C|-----------------------------------------------------------|

(3:11) Chours "Now I know why I hide my love from you somedays..."
D|------------------------------------------------------|
A|2---2-2-4-6--(2)---2--2--2--7--7--7--5-----5--5--5--|  x 3
E|------------------------------------------------------|
C|0-----------------------------------------------------|

(3:27) Chorus "Looks like you found me...now I know why"
D|-----------------------------------------------|
A|/-7--7--7--5-----5--5--5---7----------------5-|
E|-----------------------------------------------|
C|-----------------------------------------------|

REST (3:33) "I felt like *** when I woke up this morning"

(3:35) Outro
D|------------------------------------------------------------------------------------------|
A|------------------------------------------------------------------------------------------|
E|---------------------5-------------------------3----------------------------------------|
C|0-0------0-0---------------0-0------0-0---------------0-0------0-0---------2----0-0------|

(3:45) Outro
D|----------------|
A|----------------|
E|----5-----------|
C|0-0-----0-0-2-2-|


~gimptehpimp@gmail.com

Comment this song and these bass tabs

Do you have corrections, comments on the bass tabs, thoughts about the song or a message to the author? Write them below.