Guitar Tabs Explorer
Nickelback bass tabs for Sex

Sex bass tab


Be the first to rate

Sex bass tab by Nickelback

Bass tabs

Print

Tuning : Drop C (1 step down then Drop D)

Intro
------------------------|
------------------------|
------------------------|
-0--0--0--0--0--0--0--0-| x 4

---------------------------------|
---------------------------------|
---------1-1-1-1-----------------|
-0-0-0-0---------5-5-5-3-5-3-5-3-| x 4

Verse
---------------------------------|
---------------------------------|
---------1-1-1-1-----------0-----|
-0-0-0-0---------5-5-5-3-5---5-3-| x 4

Pre-Chorus
-----------|
-----------|
-5---1---3-|
-----------|
 S.  E.  X.

Chorus
---------------------------------------------------|
---------------------------------------------------|
----------------------------------------3--3--3--3-|
-12-12-12-10-12-8--8--8-7-8-5--5--5-3-5------------| x 2 first time
						    x 4 2nd time

Bridge
-------------------------------------------------------|
-------------------------------------------------------|
--------------------------------5--------------------3-|
-0-0--0-0--0-0--0-0--0-0-0--0-0----0-0-3--0-0-5--0-0---| x 7
Guitar plays once then the bass joins in

then after the softer chorus (2:56)
play chorus x 6

Comment this song and these bass tabs

Do you have corrections, comments on the bass tabs, thoughts about the song or a message to the author? Write them below.