Search tabs and chords

Browse bands and artists

A B C D E F G H I J K L M N O P Q R S T U V W X Y Z #

Log in

[ Register here | Forgot password ]

Guitar Tabs Explorer
Print

Saturday Nights Alright For Fighting bass tab by Nickelback

Bass tabs with lyrics

I'm not a big fan of Nickelback but here it is.

Tabbed by: BASSteve

Tuning: EADG **

**(This song is normally played on a 5-string bass and contains
notes that are unable to be played on a 4-string bass. This transcription
is for a 4-string bass so there are notes that will be an octave higher
than what is actually in the song)

Time signature: 16/8

r = rest (listen for duration)
/ = slide (low to high)
\ = slide (high to low)
()= note inside parenthesis not plucked or hammered on
||= measure gets repeated (see number of times above measure, e.g. 4x)

*My tabs are meant to be read in conjunction with listening to the song.
In other words, there are no specific notations to account for note/rest duration.
However, you will find that I've made an attempt to strategically space the
notes and rests within their respective measures in order to represent the appropriate
durations.



 GUITAR INTRO
                                  2 x
G||--------------------------------|--------------------------------||
D||--------------------------------|--------------------------------||
A||--------------------------------|--------------------------------||
E||r-------------------------------|r-------------------------------||


VERSE 1 (2X)
                                 2 x
||--------------------------------|--------------------------------|
||--------------------------------|--------------------------------|
||--------------------------------|--------------------------------|
||5-5-5-5-5-5-5-5-5-5-5-5-5-5-5-5-|3-3-3-3-3-3-3-3-3-3-3-3-3-3-3-3-|

                                 __________________________________
                                 |1.
|--------------------------------|--------------------------------||
|--------------------------------|--------------------------------||
|5-5-5-5-5-5-5-5-5-5-5-5-5-5-5-5-|--------------------------------||
|--------------------------------|5-5-5-5-5-5-5-5-5-5-5-5-5-5-5-5-||

__________________________________
|2.
|--------------------------------||--------------------------------|
|--------------------------------||--------------------------------|
|--------------------------------||7-7-7-7-7-7-7-7-7-7-7-7-7-7-7-7-|
|5-5-5-5-5-5-5-5-5-5-5-5-5-5-/---||--------------------------------|


                                 2 x
||--------------------------------|--------------------------------|
||--------------------------------|--------------------------------|
||5-5-5-5-5-5-5-5-5-5-5-5-5-5-5-5-|3-3-3-3-3-3-3-3-3-3-3-3-3-3-3-3-|
||--------------------------------|--------------------------------|



|--------------------------------|--------------------------------||
|--------------------------------|--------------------------------||
|--------------------------------|5-5-5-5-5-5-5-5-5-5-5-5-5-5-5-5-||
|3-3-3-3-3-3-3-3-3-3-3-3-3-3-3-3-|--------------------------------||



|--------------------------------|--------------------------------|
|--------------------------------|--------------------------------|
|0---------------5-----3---2---2-|0---------------r---------------|
|--------------------------------|--------------------------------|



Guitar Solo

|--------------------------------|--------------------------------|
|--------------------------------|--------------------------------|
|r-------------------------------|r-------------------------------|
|--------------------------------|--------------------------------|



|--------------------------------|----------------------------------|
|--------------------------------|----------------------------------|
|r-------------------------------|------------------------5/--(15)\-|
|--------------------------------|----------------------------------|



|--------------------------------|--------------------------------|
|--------------------------------|--------------------------------|
|5-5-5-5-5-5-5-5-5-5-5-5-5-5-5-5-|3-3-3-3-3-3-3-3-3-3-3-3-3-3-3-3-|
|--------------------------------|--------------------------------|



|--------------------------------|--------------------------------|
|--------------------------------|--------------------------------|
|--------------------------------|5-5-5-5-5-5-5-5-5-5-5-5-5-5-5-5-|
|3-3-3-3-3-3-3-3-3-3-3-3-3-3-3-3-|--------------------------------|



|--------------------------------|
|--------------------------------|
|--------------------------------|
|0-0-0-0-0-0-0-0-0-0-0-0-0-0-0-0-|



Verse 2
                                 2 x
||--------------------------------|--------------------------------|
||--------------------------------|--------------------------------|
||5-5-5-5-5-5-5-5-5-5-5-5-5-5-5-5-|3-3-3-3-3-3-3-3-3-3-3-3-3-3-3-3-|
||--------------------------------|--------------------------------|



|--------------------------------|--------------------------------||
|--------------------------------|--------------------------------||
|--------------------------------|5-5-5-5-5-5-5-5-5-5-5-5-5-5-5-5-||
|3-3-3-3-3-3-3-3-3-3-3-3-3-3-3-3-|--------------------------------||



Chorus
                                 2 x
||--------------------------------|--------------------------------|
||--------------------------------|--------------------------------|
||5-5-5-5-5-5-5-5-5-5-5-5-5-5-5-5-|3-3-3-3-3-3-3-3-3-3-3-3-3-3-3-3-|
||--------------------------------|--------------------------------|



|--------------------------------|--------------------------------||
|--------------------------------|--------------------------------||
|--------------------------------|5-5-5-5-5-5-5-5-5-5-5-5-5-5-5-5-||
|3-3-3-3-3-3-3-3-3-3-3-3-3-3-3-3-|--------------------------------||



Outro
|--------------------------------|--------------------------------|
|--------------------------------|--------------------------------|
|5-5-5-5-5-5-5-5-5-5-5-5-5-5-5-5-|3-3-3-3-3-3-3-3-3-3-3-3-3-3-3-3-|
|--------------------------------|--------------------------------|



|--------------------------------|--------------------------------|
|--------------------------------|--------------------------------|
|--------------------------------|5-5-5-5-5-5-5-5-5--5--5--5--5--5|
|3-3-3-3-3-3-3-3-3-3-3-3-3-3-3-3-|--------------------------------|



|--------------------------------|
|--------------------------------|
|5-------------------------------|
|--------------------------------|

              (PLEASE RATE THIS TAB / LEAVE COMMENT)

Comments