Search tabs and chords

Browse bands and artists

A B C D E F G H I J K L M N O P Q R S T U V W X Y Z #

Log in

[ Register here | Forgot password ]

Guitar Tabs Explorer
Print

Bass tabs with lyrics:

Never Again bass tab by Nickelback

Title        : Never Again
Artist/Group : Nickelback
Info         : Tune E to D
Date - Time  : 4/24/2002 - 9:44:22 PM
Created by   : Skickdog

 Intro: Drums enter.
   This is how I play it and it sounds good live. This song rocks.....


Just listen for the walk,,,
G---------------------------------------------------------||-
D---------------------------------------------------------||-
A---------------------------------------------------------||-
D---------------------3-3-5p-0-------------------5-5-3p-0-||-
B---3-3-1-3-3-1-3-3-1----------3-3-1-3-3-1-3-3-1----------||-




 played during "when you see him clinching his fist......"
G------------------------------------------------||-
D------------------------------------------------||-
A------------------------------------------------||-
D-------------5-5-5-5-5\12-12-12-12-12-12/3-3p-0-||-
B---1-1-1-1-1------------------------------------||-

  this is played for the second chorus and beyond....
G-----------------------------------------------------------------||-
D-----------------------------------------------------------------||-
A-----------------------------------------------------------------||-
D-----------------------3-3-5----------------------------5-5-3----||-
B---3-3-3--6-6-6--1-1-1--------------3-3-3--6-6-6--1-1-1----------||-




 right before "fathers a name you hav'nt earned yet.....
G-----------------------------------||
D-----------------------------------||-
A-----------------------------------||-
D---3-3-0---3-3-0---3-3-0---5-3-6-0-||-
B-----------------------------------||-


G-----------||-
D-----------||-
A-----------||-
D---5-3-6-0-||-
B-----------||-


Just Listen for the feel and the little walk, If you see some mistakes just e-mail me @
maggiesass@ev1.net. I didn't right down the times each riff if is played but you should be

Comments

Nickelback bass tabs for Never again