Guitar Tabs Explorer
Nickelback bass tabs for Id come for you

I'd Come For You bass tab


Be the first to rate

I'd Come For You bass tab by Nickelback

Bass tabs

Print
Bass Tab

INTRO NO BASS

VERSE 1 NO BASS

PRE-CHORUS
G-----------------------------------------------------------|
D-----------------------------------------------------------| x4
A--------------------------5-5-5-5--------------------------|
E----0-0-0-0h2h3-3-3-3-3h5----------5-5-5-5-----------------|


chorus

G---------------------------------------------------------------|
D---------------------------------------------------------------|
A-----55555555----------------------------------------------5---|
E-----------------------77777777---55555555--3333---55-5h7------|

G--------------------------------------------------------------------------|
D-------------------4\-----------------------------------3-------------5---|
A---5555--------5h7-----------------------------------3h5----------5h7-----|
E-----------5h7----------777777--5h7---55555555----1-1-----------33--------|

G--------------------------------------------------------------------------|
D-------------------4\-----------------------------------3-------------5---|
A---5555--------5h7-----------------------------------3h5----------5h7-----|
E-----------5h7----------777777--5h7---55555555----1-1-----------33--------|

verse 2 no bass


PRE-CHORUS
G-----------------------------------------------------------|
D-----------------------------------------------------------| x4
A--------------------------5-5-5-5--------------------------|
E----0-0-0-0h2h3-3-3-3-3h5----------5-5-5-5-----------------|


CHORUS

G---------------------------------------------------------------|
D---------------------------------------------------------------|
A-----55555555----------------------------------------------5---|
E-----------------------77777777---55555555--3333---55-5h7------|

G--------------------------------------------------------------------------|
D-------------------4\-----------------------------------3-------------5---|
A---5555--------5h7-----------------------------------3h5----------5h7-----|
E-----------5h7----------777777--5h7---55555555----1-1-----------33--------|

G--------------------------------------------------------------------------|
D-------------------4\-----------------------------------3-------------5---|
A---5555--------5h7-----------------------------------3h5----------5h7-----|
E-----------5h7----------777777--5h7---55555555----1-1-----------33--------|


bridge MUTO

CHORUS
G-------------------------------------------------------------------------|
D-----------------------------------------------------3-----------5-------|
A---5-5-----9\--------------------5---------------3h5----------5h7--------|
E---------------------777777--5h7---55555555---1-1-----------3-3----------|

G--------------------------------------------------------------------------|
D-------------------4\-----------------------------------3-------------5---|
A---5555--------5h7-----------------------------------3h5----------5h7-----|
E-----------5h7----------777777--5h7---55555555----1-1-----------33--------|


G---------------------------------------------------------------------------|
D-------------------4\-----------------------------------3-------------5----|
A---5555--------5h7-----------------------------------3h5----------5h7----5-|

Other versions of I'd Come For You

- I'd come for you-(Ver. 2)Bass tabs

Comment this song and these bass tabs

Do you have corrections, comments on the bass tabs, thoughts about the song or a message to the author? Write them below.