Guitar Tabs Explorer
Nickelback guitar tabs for How you remind me

How You Remind Me tab


5 / 5 [1 vote]

How You Remind Me tab by Nickelback

Guitar tabs with lyrics

Print
C chord diagramCC F chord diagramFF Bb chord diagramBbBb D# chord diagramD#D#  (See below for chord formations)


    C chord diagramCC  F chord diagramFF  Bb chord diagramBbBb  D# chord diagramD#D#  D#5 chord diagramD#5D#5
E chord diagramEE --3------1--------6---
B chord diagramBB --3--6---1---4----6---
G chord diagramGG --5--5---3---3----8---
D chord diagramDD --5--3---3---1----8---
A chord diagramAA --3--3---1---1----6---
D chord diagramDD -----3-------1--------


 when there is distortion, use the respective power chords

  C chord diagramCC  F chord diagramFF  Bb chord diagramBbBb  D# chord diagramD#D#
------------------
------------------
--5------3--------
--5--3---3--1-----
--3--3---1--1-----
-----3------1-----


Intro & Verses (Clean)

C chord diagramCC                     F chord diagramFF
   Never made it as a wise man
Bb chord diagramBbBb                        D# chord diagramD#D#
   I couldn't cut it as a poor man steal-in' ....
(repeat)


(00:12)
C chord diagramCC        ///D#5 chord diagramD#5D#5       Bb chord diagramBbBb
  This is how you remind me........

C chord diagramCC            F chord diagramFF        Bb chord diagramBbBb            D# chord diagramD#D#
  This is how   you remind me of what I really am (repeat)


(00:29) CHORUS (Distortion)

C chord diagramCC D# chord diagramD#D# Bb chord diagramBbBb F chord diagramFF   X2

(00:39)
C chord diagramCC C chord diagramCC              D# chord diagramD#D# D# chord diagramD#D#
  I've been wrong   I've ...
Bb chord diagramBbBb                 F chord diagramFF
  to the bottom of e...

C chord diagramCC D# chord diagramD#D# Bb chord diagramBbBb F chord diagramFF

(00:50)
C chord diagramCC          F chord diagramFF         Bb chord diagramBbBb         D# chord diagramD#D#
     Ye-ah!     Ye-ah!      Yeah!    No no    (Repeat)

Those are the patterns for the whole song except the
LAST "yeah yeah" part, at 3:10, it just follows the
chorus pattern: C chord diagramCC, D# chord diagramD#D#, Bb chord diagramBbBb, F chord diagramFF


REMEMBER the tuning is DROP-D chord diagramDD. This is an awesome tune. Be
sure to check out the new group Staggered Crossing as well
as Nickelback. You won't be disappointed. Complaints,
comments : o0l_420_l0o@yahoo.com

************************************************************
This is the standard tuning version.

-------------------------------
Nickelback - How You Remind Me
-------------------------------

Verse:
      "never made it as a wise man, couldnt cut it as
a poor man stealing."
e|---------------------------------------------------------|
G|---------------------------------------------------2-2---|
G|----6-6-6-------------3---------4-4-4--------------2-2---|
D|----6-6-6-------------4---------4-4-4--------------2-2---|
A|----4-4-4-------------2---------2-2-2--------------0-0---|
E|---------------------------------------------------------|

repeat 1x


   "And this is how you remind me of what i really am"
e|---------------------------------------------------|
B|---------------------------------------------------|
G|--6-6-----------9-9----------10-10-----------------|
D|--6-6-----------9-9----------10-10-----------------|
A|--4-4-----------7-7----------8--8------------------|
E|---------------------------------------------------|

(Guitar 2)
e|--------4-------------4---------------4------------|
B|------------2-------------2---------------2--------|
G|---------------------------------------------------|
D|---------------------------------------------------|
A|---------------------------------------------------|
E|---------------------------------------------------|

   "This is how you remind me of what i really am"
e|-------------------------------------------------|
G|------------------------------------2-2----------|
G|----6-6-6-----3-3-------4-4-4-------2-2----------|
D|----6-6-6-----4-4-------4-4-4-------2-2----------|
A|----4-4-4-----2-2-------2-2-2-------0-0----------|
E|-------------------------------------------------|

   "This is how you remind me of what i really am"
e|-------------------------------------------------|
G|------------------------------------2-2----------|
G|----6-6-6-----3-3-------4-4-4-------2-2----------|
D|----6-6-6-----4-4-------4-4-4-------2-2----------|
A|----4-4-4-----2-2-------2-2-2-------0-0----------|
E|-------------------------------------------------|



Chorus
  "It's not like you to say sorry, I was waitin' on a
different story"
e|---------------------------------------------------------|
G|----------5-5-5----------------------------2-2-2---------|
G|--6-6-6---4-4-4---------4-4-4--------------2-2-2---------|
D|--6-6-6---2-2-2---------4-4-4--------------2-2-2---------|
A|--4-4-4-----------------2-2-2--------------0-0-0---------|
E|---------------------------------------------------------|


  "this time I'm mistaken, for handing you a heart
worth breaking.."
e|---------------------------------------------------------|
G|----------5-5-5----------------------------2-2-2---------|
G|--6-6-6---4-4-4---------4-4-4--------------2-2-2---------|
D|--6-6-6---2-2-2---------4-4-4--------------2-2-2---------|
A|--4-4-4-----------------2-2-2--------------0-0-0---------|
E|---------------------------------------------------------|


Any questions comments please E chord diagramEE-mail me at o0l_420_l0o@yahoo.com ...

Other versions of How You Remind Me

- How you remind meChords
- How you remind me (Ver. 2)Chords
- How you remind me acousticChords
- How you remind me acousticTabs

Comment this song and these guitar tabs

Do you have corrections, comments on the guitar tabs, thoughts about the song or a message to the author? Write them below.