Guitar Tabs Explorer
Nickelback guitar chords for How you remind me

How You Remind Me chords


1 / 5 [1 vote]

How You Remind Me chords by Nickelback

Guitar chords with lyrics

Print
Album: The Dome 21

Prev. Tabbed by: Brian Reynolds, Trent Adams, Dani Tzoweh, Caper/Rattice


Drop D chord diagramDD Bass: 6th string E chord diagramEE = D chord diagramDD
Tuned 1/2 step down: A chord diagramAA = Ab chord diagramAbAb



     Never made it as a wise man...   couldn't cut it as a poor man
stealing...

   C chord diagramCC#sus9           C chord diagramCC#sus9/G# chord diagramG#G#       Bsus9 chord diagramBsus9Bsus9              Bsus9 chord diagramBsus9Bsus9/F# chord diagramF#F#

E chord diagramEE
---4------------------4---------------2-------------------2-----------------
B chord diagramBB
---4------------------4---------------2-------------------2-----------------
G chord diagramGG
---6------------------6---------------4-------------------4-----------------
D chord diagramDD
---6------------------6---------------4-------------------4-----------------
A chord diagramAA
---4----------------------------------2-------------------------------------
D chord diagramDD
----------------------4-----------------------------------2-----------------


  ...this   is   how   you   remind me...

    C chord diagramCC#sus9      Asus9 chord diagramAsus9Asus9       Bsus9 chord diagramBsus9Bsus9

E chord diagramEE ----4-----------0-----------2---------
B chord diagramBB ----4-----------0-----------2---------
G chord diagramGG ----6-----------2-----------4---------
D chord diagramDD ----6-----------2-----------4---------
A chord diagramAA ----4-----------0-----------2---------
D chord diagramDD --------------------------------------


  ...this   is   how   you   remind me of what I really am...

    C chord diagramCC#sus9        F# chord diagramF#F#         Bsus9 chord diagramBsus9Bsus9             E chord diagramEE

E chord diagramEE ----4-----------2------------2---------------0-------------
B chord diagramBB ----4-----------2------------2---------------0-------------
G chord diagramGG ----6-----------3------------4---------------1-------------
D chord diagramDD ----6-----------4------------4---------------2-------------
A chord diagramAA ----4-----------4------------2---------------2-------------
D chord diagramDD ----------------4----------------------------2-------------


And actually this is pretty much everything you need to know.
The chords change order throughout the song of course, but the inversions
stay the same.


[2nd guitar INTRO arpeggio]
(arpeggiates the chords "normally" later on)

   ...this   is   how   you   remind me...

E chord diagramEE ------4-----------4-----------4-------
B chord diagramBB --------2-----------2-----------2-----
G chord diagramGG ----------4-----------4-----------4---
D chord diagramDD --------------------------------------
A chord diagramAA ----4-----------0-----------2---------
D chord diagramDD --------------------------------------


[distorted OUTRO]


E chord diagramEE ------7-------7-------7-------7----
B chord diagramBB ----7-------7-------7-------7------
G chord diagramGG --------6---------------6----------
D chord diagramDD -----------------------------------
A chord diagramAA -----------------------------------
D chord diagramDD -----------------------------------




This is the standard tuning version.

-------------------------------
Nickelback - How You Remind Me
-------------------------------

Transcribed by Nayaab Islam


Verse:
      "never made it as a wise man, couldnt cut it as
a poor man stealing."
e|------------------------------------------------------------|
G|------------------------------------------------------2-2---|
G|----6-6-6----------------3---------4-4-4--------------2-2---|
D|----6-6-6----------------4---------4-4-4--------------2-2---|
A|----4-4-4----------------2---------2-2-2--------------0-0---|
E|------------------------------------------------------------|

repeat 1x


   "And this is how you remind me of what i really am"
e|---------------------------------------------------|
B|---------------------------------------------------|
G|--6-6-----------9-9----------10-10-----------------|
D|--6-6-----------9-9----------10-10-----------------|
A|--4-4-----------7-7----------8--8------------------|
E|---------------------------------------------------|

(Guitar 2)
e|--------4-------------4---------------4------------|
B|------------2-------------2---------------2--------|
G|---------------------------------------------------|
D|---------------------------------------------------|
A|---------------------------------------------------|
E|---------------------------------------------------|

   "This is how you remind me of what i really am"
e|-------------------------------------------------|
G|------------------------------------2-2----------|
G|----6-6-6-----3-3-------4-4-4-------2-2----------|
D|----6-6-6-----4-4-------4-4-4-------2-2----------|
A|----4-4-4-----2-2-------2-2-2-------0-0----------|
E|-------------------------------------------------|

   "This is how you remind me of what i really am"
e|-------------------------------------------------|
G|------------------------------------2-2----------|
G|----6-6-6-----3-3-------4-4-4-------2-2----------|
D|----6-6-6-----4-4-------4-4-4-------2-2----------|
A|----4-4-4-----2-2-------2-2-2-------0-0----------|
E|-------------------------------------------------|



Chorus
  "It's not like you to say sorry, I was waitin' on a
different story"
e|-------------------------------------------------------------------|
G|--------------------5-5-5----------------------------2-2-2---------|
G|--6-6-6-------------4-4-4---------4-4-4--------------2-2-2---------|
D|--6-6-6-------------2-2-2---------4-4-4--------------2-2-2---------|
A|--4-4-4---------------------------2-2-2--------------0-0-0---------|
E|-------------------------------------------------------------------|


  "this time I'm mistaken, for handing you a heart
worth breaking.."
e|-------------------------------------------------------------------|
G|--------------------5-5-5----------------------------2-2-2---------|
G|--6-6-6-------------4-4-4---------4-4-4--------------2-2-2---------|
D|--6-6-6-------------2-2-2---------4-4-4--------------2-2-2---------|
A|--4-4-4---------------------------2-2-2--------------0-0-0---------|
E|-------------------------------------------------------------------|


Thanks to Chris Berry's tab for timing.

Other versions of How You Remind Me

- How you remind me (Ver. 2)Chords
- How you remind me acousticChords
- How you remind meTabs
- How you remind me acousticTabs

Comment this song and these guitar chords

Do you have corrections, comments on the guitar chords, thoughts about the song or a message to the author? Write them below.