Search tabs and chords

Browse bands and artists

A B C D E F G H I J K L M N O P Q R S T U V W X Y Z #

Log in

[ Register here | Forgot password ]

Guitar Tabs Explorer
Print

Bass tabs :

How You Remind Me bass tab by Nickelback

Tabbed by:             Andy Hayes (pandobrat@hotmail.com)

bass comes in at about 17 seconds
                     2 times               2 times
G:|---------------------|---------------------|----------------|
D:|*-------------------*|*-------------------*|55-88-----------|
A:|--3333---------------|-3333-6666-----------|33-66-----------|
E:|*-----1111-6666-4444*|*----------6666-1110*|------6666-1110-|

                                             5 times
G:|---------------------|-------------------------|
D:|---------------------|*-----------------------*|
A:|-3333-6666-----------|--3-(3)------------------|
E:|-----------6666-1110-|*------1-1--6-(6)4-4-(4)*|


                                       2 times
G:|------------------|---------------------|----------------|
D:|------------------|*-------------------*|55-88-----------|
A:|3-3---------------|-3333-6666-----------|33-66-----------|
E:|---11--66666-4444-|*----------6666-1110*|------6666-1110-|


                                              4 times
G:|--------------------|--------------------------|---|wait through
D:|--------------------|*------------------------*|---|the mellow
A:|-3333-6666----------|--3-(3)-------------------|3~-|part from
E:|-----------6666-1110|*-------1-1--6-(6)4-4-(4)*|---|about 2:09 till
                                                       about 2:36

played very soft     heavy
G:|---------|----------------|--------------------|------------| rest
D:|---------|----------------|--------------------|------------| for
A:|3--------|3---------------|3333-6666-----------|3333-6666---| A
E:|--1--6-4-|--1--6\666-4444-|----------6666-1110-|----------6-| sec

                                     4 times
G:|----------------|---------------------|---------------|
D:|55-88-----------|*-------------------*|---------------|
A:|33-66-----------|-3333-6666-----------|-3333-6666-----|
E:|------6666-1110-|*----------6666-1110*|-----------6~~-|

it might be wrong cause its meant to be for a 5 string bass but it sounds alright so mail me with ne suggestions.
(its my first tab and im only 14 so dont be too harsh)

Comments

Nickelback bass tabs for How you remind me