Guitar Tabs Explorer
Nickelback guitar tabs for Hollywood

Hollywood tab


Be the first to rate

Hollywood tab by Nickelback

Guitar tabs with lyrics

Print

Band: Nickelback
By:   Adam Urbz
Mail: pickboy87@cs.com
Tune: Dropped D chord diagramDD; Down One Whole Step

Tab Symbols:
b      = bend
( )    = optional note [listen to song to hear when to play it]
x      = muted string
P.M... = palm mute
/      = slide up
      = slide down
*      = repeat bar
*

  Intro A chord diagramAA: (Distortion)
D|---------------------------------------------------------|
A|---------------------------------------------------------|
F| chord diagramF|F|*-------------------------------------------------------*|
C| chord diagramC|C|*-------------------------------------------------------*|
G|--5b-3---5b-3----x-x----5b-3----------3~~-------(3)------|
C| chord diagramC|C|-------------------------------5-7-5-----7-5-7-----------|
  Intro B chord diagramBB: (Distortion)
D|---------------------------------------------------------|
A|---------------------------------------------------------|
F| chord diagramF|F|*-------------------------------------------------------*|
C| chord diagramC|C|*-7b-5---7b-5-----------7b-5---------5-5----------------*|
G|--5b-3---5b-3-----------5b-3---5-7-5-3-3-7-5-7-----------|
C| chord diagramC|C|-------------------------------5-7-5-----7-5-7-----------|

  Verses: (Distortion)
D|---------------------------------------------------------|
A|---------------------------------------------------------|
F| chord diagramF|F|*-------------------------------------------------------*|
C| chord diagramC|C|*-7-7-7-5----7-7-7-5----------7-7-7-5---------5-5-------*|
G|--5-5-5-3----5-5-5-3----------5-5-5-3---5-7-5-3-3-7-5-7--|
C| chord diagramC|C|----------------------------------------5-7-5-----7-5-7--|
    P.M...................................................

  Chorus: (Distortion)
D|---------------------------------------------------------|
A|---------------------------------------------------------|
F| chord diagramF|F|*-------------------------------------------------------*|
C| chord diagramC|C|*-7-7-7-5----7-7-7-5----------7-7-7-5---------5-5-------*|
G|--5-5-5-3----5-5-5-3----------5-5-5-3---5-7-5-3-3-7-5-7--|
C| chord diagramC|C|----------------------------------------5-7-5-----7-5-7--|

  Pre-Solo: (Disotortion)
D|----------------------------------------------------------|
A|----------------------------------------------------------|
F| chord diagramF|F|*--------------------------------------------------------*|
C| chord diagramC|C|*-7-7-7-5----7-7-7-5-------------7-7-7-5-----------------*|
G|--5-5-5-3----5-5-5-3-------------5-5-5-3-------3-3--------|
C| chord diagramC|C|----------------------5-5--5h7-----------5-7-5-----7-5-7--|
                       With Wah/             With Wah  /

  Solo: (Distortion/Wah)
D|----------------------------------------------------------|
A|----------------------------------------------------------|
F| chord diagramF|F|--11-9---11-9---5-5-2-0------11-9---0-2-0-5-5-2-0-2--5----|
C| chord diagramC|C|----------------------------------------------------------|
G|----------------------------------------------------------|
C| chord diagramC|C|----------------------------------------------------------|
		  P.M.....	      P.M.................

D|----------------------------------------------------------|
A|----------------------------------------------------------|
F| chord diagramF|F|--11-9---11-9---2-5-2-0------11-9---0-2-0-5-5-2-0-2--5/---|
C| chord diagramC|C|----------------------------------------------------------|
G|----------------------------------------------------------|
C| chord diagramC|C|----------------------------------------------------------|
		  P.M.....	      P.M.................

D|------------------------------------------------------------------|
A|-/15-13---15-13----16-15-13-15---/15-13---13-15-13-16-16-15-13-15-|
F| chord diagramF|F|------------------------------------------------------------------|
C| chord diagramC|C|------------------------------------------------------------------|
G|------------------------------------------------------------------|
C| chord diagramC|C|------------------------------------------------------------------|
                     P.M.............        P.M....................

D|--------15------------17-------------20-------------------|
A|--15bh-------(15)------------(15)-------------------------|
F| chord diagramF|F|----------------------------------------------------------|
C| chord diagramC|C|----------------------------------------------------------|
G|----------------------------------------------------------|
C| chord diagramC|C|----------------------------------------------------------|

Tab Symbols:
b      = bend
bh     = bend and hold
( )    = optional note [listen to song to hear when to play it]
       = [in solo] play the note that is already bent
x      = muted string
P.M... = palm mute
/      = slide up
      = slide down
*      = repeat bar
*

Other versions of Hollywood

- Hollywood introChords

Comment this song and these guitar tabs

Do you have corrections, comments on the guitar tabs, thoughts about the song or a message to the author? Write them below.