Guitar Tabs Explorer
Nickelback bass tabs for Hero

Hero bass tab


Be the first to rate

Jamplay guitar lessons

Hero bass tab by Nickelback

Bass tabs with lyrics

Print

Submiter:Tyler Spencer
Corrected by:  Shanee' Barron (corruptionangel)
http://corruptionangel.homestead.com

    Verse x2
  G|-------------------------||
  D|-------------------------||
  A|-------------------------||
  E|---4-4-4-4-0-0-0-0-0-0---||

    Pre-Chorus x1
  G|------------------------------------------||
  D|------------------------------------------||
  A|------------------------------------------||
  E|--3-3-3-3-3-5-5-5-5-5-0-0-0-0-0-0-0-0-0-0-||

    Chorus
pt.1G|------------------------------------------||
    D|------------------------------------------||
    A|------------------------------------------||
    E|---3-3-3-3-3-5-5-5-5-5-7-7-7-7-7-7-7-7-7-5||

pt.2G|----------------------------------------------||
    D|----------------------------------------------||
    A|----------------------------------------------||
    E|--3-3-3-3-3-3-5-5-5-5-5-5-0-0-0-0-0-0-0-0-0-0-||

  Verse x2
  Pre-Chorus x1
  Chorus x1

  Bridge(dont do until "thats why i fear it wont do")
  G|--------------------||
  D|--------------------||
  A|--------------------||
  E|0-0-0-0-0-0-0-0-0-0-||

  Chorusx1
  Chrous pt.1 x2
  Chorus pt.2 x1



Band:Nickelback
Submiter:Tyler Spencer

    Verse x2
  G|-------------------------||
  D|-------------------------||
  A|-------------------------||
  E|---4-4-4-4-0-1-1-1-1-0---||

    Pre-Chorus x1
  G|------------------------------------------||
  D|------------------------------------------||
  A|------------------------------------------||
  E|--3-3-3-3-3-4-4-4-4-4-0-0-0-0-0-0-0-0-0-0-||

    Chorus
pt.1G|------------------------------------------||
    D|------------------------------------------||
    A|------------------------------------------||
    E|---3-3-3-3-3-5-5-5-5-5-7-7-7-7-7-7-7-7-7--||

pt.2G|----------------------------------------------||
    D|----------------------------------------------||
    A|----------------------------------------------||
    E|--3-3-3-3-3-3-5-5-5-5-5-5-0-0-0-0-0-0-0-0-0-0-||

  Verse x2
  Pre-Chorus x1
  Chorus x1

  Bridge(dont do until "thats why i fear it wont do")
  G|--------------------||
  D|--------------------||
  A|--------------------||
  E|0-0-0-0-0-0-0-0-0-0-||

  Chorusx1
  Chrous pt.1 x2
  Chorus pt.2 x1

aight aight so there it is my fellow Bass players,and crackheads who
enjoy staring at alot of numbers and dashes,that is it.
this is my first tab so any suggestions,contact me at

Comment this song and these bass tabs

Do you have corrections, comments on the bass tabs, thoughts about the song or a message to the author? Write them below.