Search tabs and chords

Browse bands and artists

A B C D E F G H I J K L M N O P Q R S T U V W X Y Z #

Log in

[ Register here | Forgot password ]

Guitar Tabs Explorer
Print

Bass tabs :

Gotta Be Somebody bass tab by Nickelback

  • Tuning: Drop C
Gotta Be Somebody - Nickelback
----------------------------------------------------------------------------

Tabbed By : Jordan
e-mail: Jordangrainger@hotmail.co.uk

Intro
No Bass

Verse 1: come in just before 'real thing

F|----------------------------------------------------------------------|
C|----------------------------------------------------------------------|
G|--------------------0000000000000000-2222222222222222-----------------|
C|-12/0000000000000000---------------------------------5555555555555555-|

Pre-chorus
F|--------------------------------------|
C|--------------------------------------|
G|---------------------------00000000-0-|
C|-2222222222222222-55555555------------|

Chorus 1

F|--------------------------------------------------------------------|
C|--------------------------------------------------------------------|
G|-----------------0000000000002244-2222222222220022------------------|
C|-0000000000002244----------------------------------5555555555555555-|

F|---------------------------------------------------------------------|
C|------------------------------------------------------------5-545420-|
G|-----------------0000000000002244-2222222222220022-------------------|
C|-0000000000002244----------------------------------55555555----------|

Verse 1
Pre Chorus
Chorus 2: (note the slight changes)

F|---------------------------------------------------------------------|
C|------------------------------------------------------------5-545754-|
G|-----------------0000000000002244-2222202422220022-------------------|
C|-0000000000002244----------------------------------55555555----------|

F|---------------------------------------------------------------------|
C|------------------------------------------------------------5-545424-|
G|-----------------0000000000002244-2222202422220022-------------------|
C|-0000000000002244----------------------------------55555454----------|

Bridge
F|-----------------------------|
C|-----------------------------|
G|-2-2-2~----------------------|
C|--------5-5-5~-2-2-2~-5-5-5~-|

F|---------------------------------------------------------------------|
C|------------------------------------------------------------5-545754-|
G|-----------------0000000000002244-2222202422220022-------------------|
C|-0000000000002244----------------------------------55555454----------|

F|------------------|
C|------------------|
G|------------------|
C|-0~~~~~~~~~~~~~~~-|

Chorus 2
Outro
F|------------------|
C|------------------|
G|------------------|
C|-0~~~~~~~~~~~~~~~-|

Comments

Nickelback bass tabs for Gotta be somebody