Guitar Tabs Explorer
Nickelback bass tabs for Good times gone

Good Times Gone bass tab


4 / 5 [1 vote]

Good Times Gone bass tab by Nickelback

Bass tabs

Print

Tuning Drop C - (C, G, C, F)

No Bass for a while until 1:18 come in with
-----------------------------------------|
-----------------------------------------|
----------------------------------3--3-5-|
-2/7--7-5--5-3--3-0--0-7--7--5--5--------|

Chorus
---------------------------------------------------------|
---------------------------------------------------------|
---------------------------------------3---5-------------|
-3---5---0------3---5---7------3---5-----------3---5---0-|

Post Chorus
-----------------------------------------|
-----------------------------------------|
----------------------------------3--3-5-|
-2/7--7-5--5-3--3-0--0-7--7--5--5--------| x 2
Only do slides the first time round

Verse
-----------------------------------------|
-----------------------------------------|
--------------------------------3--3-5-3-|
-7--7-5--5-3--3-0--0-7--7--5--5----------| x 4

Pre Chorus
---------------|
---------------|
-3~------------|
--------5~-----|
Verse part times one then Chorus

Bridge

Play Verse part x 4

Comment this song and these bass tabs

Do you have corrections, comments on the bass tabs, thoughts about the song or a message to the author? Write them below.