Guitar Tabs Explorer
Nickelback bass tabs for Get em up

Get Em Up bass tab


Be the first to rate

Jamplay guitar lessons

Get Em Up bass tab by Nickelback

Bass tabs

Print

Nickelback – Get 'em up

Intro;
- 4 bars rest
G|----------------|----------------|----------------|----------------|
D|----------------|----------------|----------------|----------------|
A|-5--------------|-5-------3------|-5--------------|-5-------3------|
E|---0-3-5---0-5-3|---0-3-5---5-3-0|---0-3-5---0-5-3|---0-3-5---5-3-0| 2x

Verse1 (His driver's license said James he went by Jim);
G|----------------|----------------|----------------|----------------|
D|----------------|----------------|----------------|----------------|
A|-5--------------|---------3------|-5--------------|---------3------|
E|---0-3-5---0-5-3|---0-3-5---5-3-0|---0-3-5---0-5-3|---0-3-5---5-3-0|

G|----------------|----------------|----------------|----------------|
D|----------------|----------------|----------------|----------------|
A|-5--------------|---------3------|----------------|-5-------3------|
E|---0-3-5---0-5-3|---0-3-5---5-3-0|---0-3-5---0-3-5|---0-3-5---5-3-0|

Verse2 (We'll need the gloves, we'll need the bags)
G|----------------|----------------|----------------|----------------|
D|----------------|----------------|----------------|----------------|
A|-5--------------|---------5------|-5--------------|---------5------|
E|---0-3-5---0-5-3|---0-3-5---5-3-0|---0-3-5---0-5-3|---0-3-5---5-3-0|

G|----------------|----------------|----------------|----------------|
D|----------------|----------------|----------------|----------------|
A|-5--------------|---------5------|----------------|---------3------|
E|---0-3-5---0-5-3|---0-3-5---5-3-0|---0-3-5---0-3-5|---0-3-5--------|

Pre-Chorus1 (This is a robbery now get down on the floor)
G|----------------|----------------|----------------|----------------|
D|----------------|----------------|----------------|----------------|
A|-5--------------|-5-------3------|-5--------------|-5-------3------|
E|---0-3-5---0-5-3|---0-3-5---5-3-0|---0-3-5---0-5-3|---0-3-5---5-3-0|

G|----------------|----------------|----------------|----------------|
D|----------------|----------------|----------------|----------------|
A|-5--------------|-5-------3------|-5--------------|-5-------3------|
E|---0-3-5---0-5-3|---0-3-5---5-3-0|---0-3-5---0-5-3|---0-3-5--------|

Chorus1 (Get 'em up);
G|----------------|----------------|----------------|----------------|
D|----------------|----------------|----------------|----------------|
A|-5--------------|---------3------|-5--------------|-5-------3------|
E|---0-3-5---0-5-3|---0-3-5---5-3-0|---0-3-5---0-5-3|---0-3-5---5-3-0|

G|----------------|----------------|----------------|----------------|
D|----------------|----------------|----------------|----------------|
A|-5--------------|---------3------|-5--------------|-5-------3------|
E|---0-3-5---0-5-3|---0-3-5---5-3-0|---0-3-5---0-5-3|---0-3-5---5-3-0|

G|----------------|----------------|----------------|----------------|
D|----------------|----------------|----------------|----------------|
A|-5--------------|---------3------|----------------|----------------|
E|---0-3-5---0-5-3|---0-3-5---5-3-0|---0-3-5---0-5-3|----------------|

Verse3 (The fresh restored mustang small block 302);
G|----------------|----------------|----------------|----------------|
D|----------------|----------------|----------------|----------------|
A|-5--------------|---------3------|-5--------------|---------3------|
E|---0-3-5---0-5-3|---0-3-5---5-3-0|---0-3-5---0-5-3|---0-3-5---5-3-0|

G|----------------|----------------|----------------|----------------|
D|----------------|----------------|----------------|----------------|
A|-5--------------|---------5------|----------------|---------3------|
E|---0-3-5---0-5-3|---0-3-5---5-3-0|---0-3-5---0-3-5|---0-3-5--------|

Pre-Chorus2 (This is a robbery now get down on the floor);
- Play Pre-Chorus1

Chorus2 (Get 'em up);
G|----------------|----------------|----------------|----------------|
D|----------------|----------------|----------------|----------------|
A|-5--------------|---------3------|-5--------------|-5-------3------|
E|---0-3-5---0-5-3|---0-3-5---5-3-0|---0-3-5---0-5-3|---0-3-5---5-3-0|

G|----------------|----------------|----------------|----------------|
D|----------------|----------------|----------------|----------------|
A|-5--------------|---------3------|-5--------------|-5-------3------|
E|---0-3-5---0-5-3|---0-3-5---5-3-0|---0-3-5---0-5-3|---0-3-5--------| 2x

Verse4 (The only thing I wish that one of us had known);
G|----------------|----------------|----------------|----------------|
D|----------------|----------------|----------------|----------------|
A|-5--------------|---------3------|-5--------------|---------3------|
E|---0-3-5---0-5-3|---0-3-5---5-3-0|---0-3-5---0-5-3|---0-3-5---5-3-0|

G|----------------|----------------|----------------|----------------|
D|----------------|----------------|----------------|----------------|
A|-5--------------|---------5------|-5--------------|----------------|
E|---0-3-5---0-5-3|---0-3-5---5-3-0|---0-3-5---0-5-3|----------------|

Pre-Chorus3 (This is a robbery now get down on the floor);
- Play Pre-Chorus1

Chorus3 (Get 'em up);
G|----------------|----------------|----------------|----------------|
D|----------------|----------------|----------------|----------------|
A|-5--------------|---------3------|-5--------------|-5-------3------|
E|---0-3-5---0-5-3|---0-3-5---5-3-0|---0-3-5---0-5-3|---0-3-5---5-3-0|

G|----------------|----------------|----------------|----------------|
D|----------------|----------------|----------------|----------------|
A|-5--------------|---------3------|-5--------------|-5-------3------|
E|---0-3-5---0-5-3|---0-3-5---5-3-0|---0-3-5---0-5-3|---0-3-5--------|

Comment this song and these bass tabs

Do you have corrections, comments on the bass tabs, thoughts about the song or a message to the author? Write them below.