Guitar Tabs Explorer
Nickelback guitar tabs for Four horsemen

Four Horsemen tab


Be the first to rate

Four Horsemen tab by Nickelback

Guitar tabs

Print
bands) and Chad said "any 'tallica fans out there?". Surprisingly, only me and 20
other people stood up. Well, anyway, they played four horsemen, but stopped at
the solo. I guess since they played it live ill tab it for anyone else who heard
it on the tour. I hope its correct, i figured a lot of this out on my own:

7.29.04 - Just updated the tab, fixed it up a bit.
INTRO
e|----------------------------------------------------------------------|
B|----------------------------------------------------------------------|
G|--5-----7--5----------------------------------------------------------|
D|--5--5--7--5----------------------------------------------------------|
A|--3--5--5--3----------------------------------------------------------|
E|-----3----------------------------------------------------------------|


e|----------------------------------------------------------------------|
B|----------------------------------------------------------------------|
G|----------------------------------------------------------------------|
D|----------------------------------------------------------------------|
A|--5--7--5--7--5--7--5--7--5--7--5--7--5-------------------------------|
E|--0--0--0--0--0--0--0--0--0--0--0--0--0--7----------------------------|

e|----------------------------------------------------------------------|
B|----------------------------------------------------------------------|
G|----------------------------------------------------------------------|
D|-----------------------------------------7\-5-------------------------|
A|--5--7--5--7--5--7--5--7--5--7--5-----5--------7\-5-------------------|
E|--0--0--0--0--0--0--0--0--0--0--0--7----------------------------------|

e|----------------------------------------------------------------------|
B|----------------------------------------------------------------------|
G|----------------------------------------------------------------------|
D|----------------------------------------------------------------------|
A|--5--7--5--7--5--7--5--7--5--7--5--7--5-----5-------------------------|
E|--0--0--0--0--0--0--0--0--0--0--0--0--0--7--0-------------------------|

e|----------------------------------------------------------------------|
B|----------------------------------------------------------------------|
G|--5-----7--5----------------------------------------------------------|
D|--5--5--7--5----------------------------------------------------------|
A|--3--5--5--3----------------------------------------------------------|
E|-----3----------------------------------------------------------------|

VERSE

e|----------------------------------------------------------------------|
B|----------------------------------------------------------------------|
G|----------------------------------------------------------------------|
D|-----------9-----------9-----------9--7--7----------------------------|
A|-----------7-----------7-----------7--5--5----------------------------|
E|--0--0--0-----0--0--0-----0--0--0-------------------------------------|

e|----------------------------------------------------------------------|
B|----------------------------------------------------------------------|
G|----------------------------------------------------------------------|
D|-----------9-----------9-----------9--5--7----------------------------|
A|-----------7-----------7-----------7--3--5----------------------------|
E|--0--0--0-----0--0--0-----0--0--0-------------------------------------|

e|----------------------------------------------------------------------|
B|----------------------------------------------------------------------|
G|----------------------------------------------------------------------|
D|-----------9-----------9-----------9--12--9---------------------------|
A|-----------7-----------7-----------7--10--7---------------------------|
E|--0--0--0-----0--0--0-----0--0--0-------------------------------------|

e|----------------------------------------------------------------------|
B|----------------------------------------------------------------------|
G|--5-----7--5----------------------------------------------------------|
D|--5--5--7--5----------------------------------------------------------|
A|--3--5--5--3----------------------------------------------------------|
E|-----3----------------------------------------------------------------|


CHORUS
e|----------------------------------------------------------------------|
B|----------------------------------------------------------------------|
g --9--9--9\--7--7--7\--5--5--5\--4\\-----------------------------------|
d --9--9--9\--7--7--7\--5--5--5\--4\\-----------------------------------|
a --7--7--7\--5--5--5\--3--3--3\--2\\-----------------------------------|
e ----------------------------------------------------------------------|


e ----------------------------------------------------------------------|
b ----------------------------------------------------------------------|
g --9--9--9\--7--7--7\--5--5--5\--4--4--5-------------------------------|
d --9--9--9\--7--7--7\--5--5--5\--4--4--5--5----------------------------|
a --7--7--7\--5--5--5\--3--3--3\--2--2--3--5----------------------------|
e -----------------------------------------3----------------------------|


And this is where they stopped.. guess they couldnt do the solo.

Comment this song and these guitar tabs

Do you have corrections, comments on the guitar tabs, thoughts about the song or a message to the author? Write them below.