Guitar Tabs Explorer
Nickelback guitar tabs for Follow you home

Follow You Home tab


Be the first to rate

Follow You Home tab by Nickelback

Guitar tabs

Print

Nickelback - Follow You Home
-------------------------------------------------------------------------------
Tabbed by: Leo

Tuning: CGCFAD

Intro
D|----------------------------------0-----------------------------------------|
A|----------------------------------3-----------------------------------------|
F| chord diagramF|F|----------------------------------2-----------------------------------------|
C| chord diagramC|C|-7-5-7-5-7-10-7-5-7-5-7-10-5-7----0-7-10----7-5-7-10-5-7----3---10-12-------|
G|-7-5-7-5-7-10-7-5-7-5-7-10-5-7----0-7-10----7-5-7-10-5-7----3---10-12-------|
C| chord diagramC|C|-7-5-7-5-7-10-7-5-7-5-7-10-5-7----0-7-10----7-5-7-10-5-7----3---10-12-------|

Verse: Bass

Prechorus: "You can stick me in a hole"
D|-----------------0----------------------------------------------------------|
A|-----------------3----------------------------------------------------------|
F| chord diagramF|F|-----------------2----------------------------------------------------------|
C| chord diagramC|C|-7-5-7-10-5-7----0----7-10--------------------------------------------------| x 4
G|-7-5-7-10-5-7----0----7-10--------------------------------------------------|
C| chord diagramC|C|-7-5-7-10-5-7----0----7-10--------------------------------------------------|

Chorus: "And I stay alive ...."
D|-------0---------------------0----------------------------------0-----------|
A|-------3---------------------3----------------------------------3-----------|
F| chord diagramF|F|-------2---------------------2----------------------------------2-----------|
C| chord diagramC|C|--3----0-----7-5-7-10-5-7----0----7-10----------7-5-7-10-5-7----0----7-10---|
G|--3----0-----7-5-7-10-5-7----0----7-10----------7-5-7-10-5-7----0----7-10---|
C| chord diagramC|C|--3----0-----7-5-7-10-5-7----0----7-10----------7-5-7-10-5-7----0----7-10---|

"And I will survive ... "    "Cause you're my Mississippi Princess...."
D|-------0------------------------------0-0-----------------------------------|
A|-------3------------------------------3-3-----------------------------------|
F| chord diagramF|F|-------2------------------------------2-2--------------------------7-7-7----|
C| chord diagramC|C|--3----0--------------------7-7-7-----0-0----5-0-----10-10-10------7-7-7----|
G|--3----0--------------------7-7-7-----0-0----5-0-----10-10-10------5-5-5----|
C| chord diagramC|C|--3----0--------------------7-7-7-----0-0----5-0-----10-10-10---------------|
                                                   "I'll still follow you home"
D|---------------------0-0----------------------------------------------------|
A|---------------------3-3----------------------------------------------------|
F| chord diagramF|F|---------------------2-2----------------------------------------------------|
C| chord diagramC|C|--5-0-------7-7-7----0-0----5-0-----10-10-10-----5-7-5-7-10-7-5-7-5-7-10-5-7|
G|--5-0-------7-7-7----0-0----5-0-----10-10-10-----5-7-5-7-10-7-5-7-5-7-10-5-7|
C| chord diagramC|C|--5-0-------7-7-7----0-0----5-0-----10-10-10-----5-7-5-7-10-7-5-7-5-7-10-5-7|

D|-0--------------------------------------------------------------------------|
A|-3--------------------------------------------------------------------------|
F| chord diagramF|F|-2--------------------------------------------------------------------------|
C| chord diagramC|C|-0----7-10------7-5-7-10-5-7-----3-----10-12--------------------------------|
G|-0----7-10------7-5-7-10-5-7-----3-----10-12--------------------------------|
C| chord diagramC|C|-0----7-10------7-5-7-10-5-7-----3-----10-12--------------------------------|


No solos.

Other versions of Follow You Home

- Follow you homeChords
- Follow you home - introTabs

Comment this song and these guitar tabs

Do you have corrections, comments on the guitar tabs, thoughts about the song or a message to the author? Write them below.