Guitar Tabs Explorer
Nickelback bass tabs for Follow you home

Follow You Home bass tab


Be the first to rate

Jamplay guitar lessons

Follow You Home bass tab by Nickelback

Bass tabs

Print

Tabbed by: Bass Pants

Intro
G|------------------------------------------------------------------|
D|------------------------------------------------------------------|
A|----------------------------------3--3\1---------------------1/3--|
D|-5-3-5-3-5-8-5-3----5-3-5-8-3-5------------5-3-5-8-3-5---1--------|

Verse
G|--------------------------------------------------------------------|
D|--------------------------------------------------------------------|
A|------------------3—-3\1--------------------1/3---------------------|
D|----5-3-5-8-3-5------------5-3-5-8-3-5---1--------------------------|

Pre Chorus
G|--------------------------------------------------------------------|
D|--------------------------------------------------------------------|
A|---------------3---3\1----------------------1/3---------------------|
E|-5-3-5-8-8-5-3-----------5-3-5-8-8-5-3---1--------------------------|

Chorus
G|--------------------------------------------------------------------|
D|--------------------------------------------------------------------|
A|-------3-3-----------------3-3\1-----------------3-1/3---------3-3--|
D|-1-1---------5-3-5-8-3-5-----------5-3-5-8-3-5-----------1-1--------|

G|--------------------------------------------------------------------|
D|--------------------------------------------------------------------|
A|-----3-3--3\1-------3h5--3\1------------3-3--3\1--------------------|
D|-5\------------8\------------------5\------------8\--3-5-3-5-8-5-3--|

Intro
Verse
Pre Chorus
Chorus
Chorus During Solo part one
Pre chorus without the slides for solo part 2
Verse
Chorus
Intro

Comment this song and these bass tabs

Do you have corrections, comments on the bass tabs, thoughts about the song or a message to the author? Write them below.