Guitar Tabs Explorer
Nickelback bass tabs for Fly

Fly bass tab


Be the first to rate

Fly bass tab by Nickelback

Bass tabs

Print

Chorus (Dont play in 1st verse)

G|-----------------------------------|
D|-----------------(x3)--------------|
A|----------------------22222222-4~--|
D|44444444-66666666------------------|

Verse

G|----------------------------------------|
D|-------------------(x2)-----------------|
A|1-11-4-44-0-00-2-22---1-11-4-44-0-00-2--|
D|----------------------------------------|

Chorus

G|--------------------------------------------------|
D|-----------------(x3)-----------------------------|
A|----------------------22222222-44444444-44444444--|
D|44444444-66666666---------------------------------|

Bridge

G|-------------------------------------------------------------------|
D|-----------------------------------(x3)----------------------------|
A|------------------00000000-22222222---------------------00000000-2-|
D|44444444-66666666---------------------44444444-66666666------------|


Verse

G|----------------------------------------|
D|-------------------(x3)-----------------|
A|1-11-4-44-0-00-2-22---1-11-4-44-0-00-2--|
D|----------------------------------------|

Chorus

G|--------------------------------------------------|
D|-----------------(x3)-----------------------------|
A|----------------------22222222-44444444-44444444--|
D|44444444-66666666---------------------------------|

Bridge

G|-------------------------------------------------------------------|
D|-----------------------------------(x3)----------------------------|
A|------------------00000000-22222222---------------------00000000-2-|
D|44444444-66666666---------------------44444444-66666666------------|

Comment this song and these bass tabs

Do you have corrections, comments on the bass tabs, thoughts about the song or a message to the author? Write them below.