Guitar Tabs Explorer
Nickelback bass tabs for Figured you out

Figured You Out bass tab


Be the first to rate

Figured You Out bass tab by Nickelback

Bass tabs

Print

-------------------------------------------------------------------------------
			     FIGURED YOU OUT - Nickelback
-------------------------------------------------------------------------------

Tabbed By :Ben R.
e-mail: arsonite@rock.com

Tuning: (Low to high) A,D,G,C,F.

  The song is pretty straighforward. Listen to it to find out the exact timing.
You'll want to use a 5 string for the song but a regular one will work without
the F. Email me if you have any questions or comments. Good Luck!!

Verse
F|---------------------------------------------------------------------------|
C|---------------------------------------------------------------------------|
G|---------------------------------------------------------------------------|
D|------------------------------------1-1---1-1---1-1---1-1----3-3---3-3---3-|
A|-15\\\-----3-3---3-3---3-3---3-3-------------------------------------------|

F|---------------------------------------|
C|---------------------------------------|
G|---------------------------------------|
D|3---3-3-1------------------------------|
A|-------------3-3--x--3-3---3-----------|



chorus " ...and now I know who you are .."
F|---------------------------------------------------------------------------|
C|---------------------------------------------------------------------------|
G|------------------3-3-3-3-3-3-3-3------------------------------------------|
D|-----------------------------------3---3-3-3-3-3-3----1--------------------|
A|-3-3-3-3-3-3-3-3------------------------------------3----------3---------3-|

F|---------------------------------------------------------------------------|
C|---------------------------------------------------------------------------|
G|---------------------3-3-3-3-3-3-3-3---------------------------------------|
D|--------------------------------------3-3-3-3-3-3-3-3----1-----------------|
A|----3--------/15\\-------------------------------------3-------3---------3-|

F|-----|
C|-----|
G|-----|
D|-----|
A|---3-|




bridge
F|---------------------------------------------------------------------------|
C|---------------------------------------------------------------------------|
G|---------------------------------------------------------------------------|
D|------------------------------------------1-1---x--1-1---x---1-1---x---1-1-|
A|--3-3---x---3-3---x---3-3---x---3-3---x------------------------------------|

F|---------------------------------------------------------------------------|
C|---------------------------------------------------------------------------|
G|---------------------------------------------------------------------------|
D|-x---3-3---x---3-3---x---3-3---x---3-3---x---------------------------------|
A|--------------------------------------------3-3---x---3-3---x---3----------|





3rd verse
F|---------------------------------------------------------------------------|
C|---------------------------------------------------------------------------|
G|---------------------------------------------------------------------------|
D|--------------------------------1-1---12\1-1---13\1-1---------3-3-3-3---13\|
A|-3-3---15\3-3---15\3-3-----------------------------------------------------|

F|---------------------------------------------------------------------------|
C|---------------------------------------------------------------------------|
G|---------------------------------------------------------------------------|
D|3-3-3-3---13\3-3-3-3-------------------------------------------------------|
A|-----------------------------3-3/13\3---3-3---3-3-3-3---3----15\-----------|





outro
F|---------------------------------------------------------------------------|
C|---------------------------------------------------------------------------|
G|---------------------------------------------------------------------------|
D|------------------------------1-1---1-1-1----------------------------------|
A|-3-3---x---3-3---x---3-3---x---------------3---3-3-------------------------|



verse
chorus
verse
chorus
bridge
verse 3
chorus
outro


 /  slide up
 \  slide down
 h  hammer-on
 p  pull-off
 ~  vibrato
 +  harmonic
 x  Mute note

Comment this song and these bass tabs

Do you have corrections, comments on the bass tabs, thoughts about the song or a message to the author? Write them below.