Guitar Tabs Explorer
Nickelback bass tabs for Far away

Far Away bass tab


Be the first to rate

Far Away bass tab by Nickelback

Bass tabs

Print
tabbed by G-Suz
E A D G

Verse
   4/4
    Gtr I
    H.       Q    H.       Q    H.       Q    H.       Q     4x
||--------------|-------------|-------------|----------------||
||o-------------|-------------|-------------|---------------o||
||o-2-------/4--|---------/6--|-------------|---------------o||
||--------------|-2-----------|-4-------/7--|-0-------/2-----||


 Pre-Chorus
  Q.   E +Q   Q    Q.   E +Q   Q    Q.   E +Q   Q    Q.   E +Q   Q
|----------------|----------------|----------------|----------------||
|----------------|----------------|----------------|----------------||
|-4----4-(4)--4--|-4----4-(4)--4--|----------------|----------------||
|----------------|----------------|-0----0-(0)--0--|-0----0-(0)--2--||


   Chorus
                                                      1.,2.,3.
    Q.   E +Q   Q    Q.   E +Q   Q    Q.   E +Q   Q    Q.   E +Q   Q  4x
||-----------------|----------------|----------------|----------------||
||o----------------|----------------|----------------|---------------o||
||o-2----2-(2)--2--|----------------|----------------|---------------o||
||-----------------|-2----2-(2)--2--|-4----4-(4)--4--|-0----0-(0)--2--||


  4.
                 To CoD.C. al Coda
  >
  W          +W           W
|----------|------------|----------||
|----------|------------|----------||
|----------|------------|----------||
|-0--------|-(0)--------|----------||


    &
    H.       Q    H.       Q    H.       Q    H.       Q
||--------------|-------------|-------------|---------------||
||o-------------|-------------|-------------|--------------o||
||o-2-------/4--|---------/6--|-------------|--------------o||
||--------------|-2-----------|-4-------/7--|-0-------/2----||


  Q.   E +Q   Q    Q.   E +Q   Q    Q.   E +Q   Q    Q.   E +Q   Q
|----------------|----------------|----------------|----------------||
|----------------|----------------|----------------|----------------||
|-4----4-(4)--4--|-4----4-(4)--4--|----------------|----------------||
|----------------|----------------|-0----0-(0)--0--|-0----0-(0)--2--||


    Q.   E +Q   Q    Q.   E +Q   Q
||-----------------|----------------|
||o----------------|----------------|
||o-2----2-(2)--2--|----------------|
||-----------------|-2----2-(2)--2--|


 1.                                  2.
  Q.   E +Q   Q    Q.   E +Q   Q     Wx2
|----------------|----------------||--------||
|----------------|---------------o||--------||
|----------------|---------------o||--------||
|-4----4-(4)--4--|-0----0-(0)--2--||--------||


   Out-Chorus
    Q.   E +Q   Q    Q.   E +Q   Q    Q.   E +Q   Q    Q.   E +Q   Q  8x W
||-----------------|----------------|----------------|----------------||------*|
||o----------------|----------------|----------------|---------------o||-4----*|
||o-4----4-(4)--4--|----------------|----------------|---------------o||------*|

Comment this song and these bass tabs

Do you have corrections, comments on the bass tabs, thoughts about the song or a message to the author? Write them below.