Guitar Tabs Explorer
Nickelback bass tabs for Do this anymore

Do This Anymore bass tab


Be the first to rate

Do This Anymore bass tab by Nickelback

Bass tabs

Print
Intro-
G----------------------|
D----------------------|
A----------------1~----|
E--1~/--4~-------------|
B------------4~--------|


Verse-
G----------------------------|
D---------------------------*|
A--------------------11111---|
E--11111-44444--------------*|
B--------------44444---------|


Prechorus-
G---------------|
D---------------|
A---------------|
E----------1111-|
B--44444444-----|


Chorus-					Chorus Variation
G------------------------------|
D------------------------------|
A---------------------1111111--|
E--------------44--4-----------|
B--11--1--44--4----------------|


After Chorus Thing (also thrown in other places)
G-------------------------------|
D-------------------------------|
A----------------------1h3------|
E--1111------1111----1----------|
B-------4444-------4------------|


Fill Right Before Guitar Solo
G--------------------------------|
D--------------------------------|
A--/10-10h13-13-13--10h13-13-13--|
E--------------------------------|

Comment this song and these bass tabs

Do you have corrections, comments on the bass tabs, thoughts about the song or a message to the author? Write them below.