Search tabs and chords

Browse bands and artists

A B C D E F G H I J K L M N O P Q R S T U V W X Y Z #

Log in

[ Register here | Forgot password ]

Guitar Tabs Explorer
Print

Bass tabs :

Detangler bass tab by Nickelback

Intro
G|---------|-----------------------------------------|
D|---------|------------------------------------(x4)-|
A|33333333-|00000000-33333333----------55555555------|
D|---------|------------------55555555---------------|

Verse
G|------------------------| (x4)
D|------------------------|
A|00-00-------------------|
D|------33-33-55-55-00-00-|

Chorus
G|-----------------------------------------|
D|------------------------------------(x2)-|
A|00000000-33333333----------55555555------|
D|------------------55555555---------------|

G|-----------------------------------| (x2)
D|-----------------------------------|
A|00-000-0-33-333-3----------55-555-5|
D|------------------55-555-5---------|

Verse

G|------------------------| (x4)
D|------------------------|
A|00-00-------------------|
D|------33-33-55-55-00-00-|

Chorus
G|-----------------------------------------|
D|------------------------------------(x4)-|
A|00000000-33333333----------55555555------|
D|------------------55555555---------------|

G|-----------------------------------| (x4)
D|-----------------------------------|
A|00-000-0-33-333-3----------55-555-5|
D|------------------55-555-5---------|

Bridge
G|----------------------------------| (x2)
D|----------------------------------|
A|----------------------------------|
D|3333333333333333-5555555555555222-|

G|------------------------|--------------------|
D|------------------------|--------------------|
A|------------------------|--------------------|
D|33-33-33-33-55-55-55-55-|33-33-33-33-R-R-R-R-|

Post Bridge part

G|--------| (Basically dont play; I always hear this thing right before
D|--------|  the next part, sounds like D|5\.  But Im not sure.)
A|--------|
D|R-R-R-R-|

Verse
Verse
G|------------------------| (x4)
D|------------------------|
A|00-00-------------------|
D|------33-33-55-55-00-00-|

Chorus
G|-----------------------------------------|
D|------------------------------------(x4)-|
A|00000000-33333333----------55555555------|
D|------------------55555555---------------|

G|-----------------------------------| (x4)
D|-----------------------------------|
A|00-000-0-33-333-3----------55-555-5|
D|------------------55-555-5---------|

Ending Note

G|----|
D|----|
A|----|
D|3~--|

Comments

Nickelback bass tabs for Detangler