Guitar Tabs Explorer
Nickelback guitar tabs for Curb

Curb tab


Be the first to rate

Curb tab by Nickelback

Guitar tabs with lyrics

Print

Song- Curb

(riff 1)

    gtr 1
E|-----------------------------------|-----------------------------------|
B|-----------------------------------|-----------------------------------|
G|-----------------------------------|-----------------------------------|
D|-----------------------------------|-----------------------------------|
A|-------9-------9-------9-H chord diagramHH-10------|-10------10---------9B10R9---------|
D|---0-------0-------0-----H chord diagramHH-10--10--|-10------10------10---------10-----|
 |
 |  gtr 2
E|-----------------------------------|-----------------------------------|
B|-----------------------------------|-----------------------------------|
G|-----------------------------------|-------------------------------10--|
D|-----------------------------------|-------------------------10H12-----|
A|-----------------------------------|-----------------------------------|
D|-----------------------------------|-----------------------------------|


    gtr 1  (Repeat Start)
E|-----------------------------------|-----------------------------------|
B|-----------------------------------|-----------------------------------|
G|-----------------------------------|-----------------------------------|
D|-----------------------------------|-----------------------------------|
A|-------9-------9-------9-H chord diagramHH-10------|-10------10----------9B10R9--------|
D|---0-------0-------0-----H chord diagramHH-10--10--|-10------10------10----------10----|
 |
 |  gtr 2
E|-----------------------------------|-----------------------------------|
B|-----------------------------------|-----------------------------------|
G|--11-------11--------------12------|-----------------------------10----|
D|-----------------------------------|-----------------------10H12-------|
A|-----------------------------------|-----------------------------------|
D|-----------------------------------|-----------------------------------|
    Have     I      Gone_______________ All   too     far________
    IF       I      Have_______________ Let   Me      know_______




    gtr 1					             (Repeat End)
E|-----------------------------------|-----------------------------------|
B|-----------------------------------|-----------------------------------|
G|-----------------------------------|-----------------------------------|
D|-----------------------------------|-----------------------------------|
A|-------9-------9-------9-H chord diagramHH-10------|-10------10----------9B10R9--------|
D|---0-------0-------0-----H chord diagramHH-10--10--|-10------10------10----------10----|
 |
 |  gtr 2
E|-----------------------------------|-----------------------------------|
B|-----------------------------------|-----------------------------------|
G|--11-------11------12Su14sd12------|-----------------------------10----|
D|---------------12------------------|-----------------------10H12-------|
A|-----------------------------------|-----------------------------------|
D|-----------------------------------|-----------------------------------|
    Have     I   Been__________________ Here  Before_____________
    How      It  Goes__________________
									--




Prechorus   (Riff 2)

    gtr 1 (Clean)        	      gtr2 2 (Overdrive)
E|-----------------------------------|-----------------------------------|
B|-----------------------------------|-----------------------------------|
G|-----------------------------------|-----------------------------------|
D|-----------------------------------|-----------------------12--11--10--|
A|-------9-------9-------9-H chord diagramHH-10------|-----------------------12--11--10--|
D|---0-------0-------0-----H chord diagramHH-10--10--|-----------------------12--11--10--|
     Take_______ her_____      Place_________________        And  I  Will
     See________ her_____      Face__________________          No  Reason
     Let________ it______      Slide_________________        And  I  Will




    gtr 1 (Clean)            (OVER DRIVE)
E|-----------------------------------|-----------------------------------|
B|-----------------------------------|-----------------------------------|
G|-----------------------------------|-----------------------------------|
D|----------------------------10-----|-----------------------------------|
A|-------9-------9-------9----10-----|-----------------------------------|
D|---0-------0-------0--------10-----|-----------------------------------|
     Watch       her          DIE_________________________________ YEAH!



   Chorus  (riff 3)
This section is pretty much just improvised.  It goes somthing like this, but feel
free to play with it until it sounds right.


E|-----------------------------------|-----------------------------------|
B|-----------------------------------|-----------------------------------|
G|-----------------------------------|-----------------------------------|
D|--x--x--x--12-\------x--x--x--12-\-|---x--x--x--12-\-------13--12--10--|
A|--x--x--x--12-\------x--x--x--12-\-|---x--x--x--12-\-------13--12--10--|
D|--x--x--x--12-\------x--x--x--12-\-|---x--x--x--12-\-------13--12--10--|
    Run                Through Fields       To Find          And I   Will
    Hold,              Then Lead            Then Lie         And I   will


E|-----------------------------------|
B|-----------------------------------|
G|-----------------------------------|
D|--10-------------------------------|
A|--10-------------------------------|
D|--10-------------------------------|
    NO____________ I Wont



Additional Lyrics
-------------------------------------------------------------------------
Riff 1
Is it now really time?
Can I just give mind, if
I can simply trade
Deal Made

Riff 2
Take her place
And I will
See her face
No reason
Let it slide
And I will
Watch her die...


Riff 3
To run through fields
To find, and I will
Hold, then lead, then lie
And I will...

Run, hide away from me
Desouled, to seek, decide
And I will, no I won't



Run through fields to find
Hold then lead, then lie
And I will
Run, desouled, and
Hold, to heal, to find

Comment this song and these guitar tabs

Do you have corrections, comments on the guitar tabs, thoughts about the song or a message to the author? Write them below.