Guitar Tabs Explorer
Nickelback guitar tabs for Cowboy hat

Cowboy Hat tab


Be the first to rate

Cowboy Hat tab by Nickelback

Guitar tabs

Print

Intro/Verse
D|-0h1-------7777------|
A|-----22-55-0000-777--|
B|-----00-33------555--|

Pre-Chorus
D|-------------------------|
A|2222-5555-12121212-7777--|
B|0000-3333-10101010-5555--|

E|-----5----------------|
B|-----5----------------|
G|-----2------22222222--|
D|-----2------22222222--|
A|-----0------00000000--|
B|-0-0----0-0-----------|
              |*****    |
              *pm-(slowly gets louder)

Chorus
G|-55----------------2222-|
D|-55----------------2222-|
A|-33-10101010-5555--0000-|
B|----8 8 8 8 -3333*------|

NB*- on 2nd chorus stop here!

Interlude 1

D|----------------------------|
A|-1010101010101010-77777777--|x3 then play
B|-8 8 8 8 8 8 8 8 -55555555--|

D|-----------------------------------|
A|-1010101010101010-1212121212121212-|x1
B|-8 8 8 8 8 8 8 8 -1010101010101010-|


Interlude 2
E|-----0--------0-------0-------0-------0-------0----
B|---0---0----0---0---0---0---0---0---0---0---0---0--
G|-7-------7--------6-------6-------5-------5--------

E|-----0-------0---|
B|---0---0---0---0-|x4
G|-4-------4-------|


E|-----5-------5------5------5--|  |----------|
B|-----5-------5------5------5--|  |----------|
G|-----2-------2------2------2--|  |-22222222-|
D|-----2-------2------2------2--|  |-22222222-|
A|-----0-------0------0------0--|  |-00000000-|

Comment this song and these guitar tabs

Do you have corrections, comments on the guitar tabs, thoughts about the song or a message to the author? Write them below.