Guitar Tabs Explorer
Nickelback bass tabs for Breathe

Breathe bass tab


Be the first to rate

Jamplay guitar lessons

Breathe bass tab by Nickelback

Bass tabs

Print

Tuning : Drop C (C, G, C, F)

Intro + Verse
F--------------------------------------------------------------------|
C--------------------------------------------------------------------|
G--------------------1-1-1-1-1-1-1-1-----------------3-3-3-3-3-3-3-3-|
C-\\\0-0-0-0-0-0-0-0-----------------5-5-5-5-5-5-5-5-----------------|

x 4

Chorus
-----------------------------------------------------------|
-----------------------------------------------------------|
-----------------1-1-1-1-1-1-1-1-3-3-3-3-3-3-3-3-----------|
-0-0-0-0-0-0-0-0---------------------------------0-0---0-0-| x 2 first chorus

Intro/verse again

2nd chorus play x 3

Intro verse part x 2

Interlude
------------------------------------------------|
------------------------------------------------|
---------------------------------5--3-3--5--3-3-|
-3-3-3-3-3-3-3-3-5-5-5-5-5-5-5-5----------------| x 2

-------------------------------------------------------------------|
-------------------------------------------------------------------|
---------------------------------1-1-1-1-1-1-1-1-3(roll this note)-|
-3-3-3-3-3-3-3-3-5-5-5-5-5-5-5-5-----------------------------------|

-----------------------------------------------------------------|
-----------------------------------------------------------------|
-5-5-5-5-5-5-5-5-1-1-1-1-1-1-1-1-3-3-3-3-3-3-3-3-----------------|
-------------------------------------------------5-5-5-5-5-5-5-5-| x 2

Slow part
--------------------------|
--------------------------|
-5~-----1~-------------3~-|
---------------5~---------| x 2

then no bass

Chorus x 3

-----------------------------------------------------------------|
-----------------------------------------------------------------|
-5-5-5-5-5-5-5-5-1-1-1-1-1-1-1-1-----------------3-3-3-3-3-3-3-3-|
---------------------------------5-5-5-5-5-5-5-5-----------------| x2 to finish

Comment this song and these bass tabs

Do you have corrections, comments on the bass tabs, thoughts about the song or a message to the author? Write them below.