Guitar Tabs Explorer
Nickelback bass tabs for Believe it or not

Believe It Or Not bass tab


Be the first to rate

Believe It Or Not bass tab by Nickelback

Bass tabs

Print
artist-nickelback
By luca piccirilli
any suggestions email lucamagicp@hotmail

Verse
g-------------------------------|
d-------------------------------| x4
a--------------------6666-------|
e-3333-153--33333333----6666----|


Pre-Chorus
G----------------------------------------------------------------|
D----------------------------------------------------------------|
A--------------------------------1-1-1-1-1-1-1-1-3-3-3-3-3-3-3-3-| x1
E1-1-1-1-1-1-1-1-3-3-3-3-3-3-3-3---------------------------------|


Chorus
g--------------------------|
d--------------------------| x2
a------6-66-6--------------|
e33-33--------66-66-8-88-8-|

Post-Chorus
G--------------------------------|
D--------------------------------|
A1-1-1-1-1-1-1-1-3-3-3-3-3-3-3-3-| x1
E--------------------------------|


Verse x6

Pre-Chorus x1

Chorus x4

Post Chorus x1

Verse x2

Break 2:12-2:29

Bridge
G--------------------------------------------|
D--------------------------------------------|
A1~----3~----1-1-1-1-1-1-1-1-3-3-3-3-3-3-3-3-| x1
E--------------------------------------------|

Chorus x2

Break 2:50-2:55

Verse x4

Pre-Chorus x1

Chorus x4

Post-Chorus x2

Comment this song and these bass tabs

Do you have corrections, comments on the bass tabs, thoughts about the song or a message to the author? Write them below.